  0
SECTION
  2
HEADER
  9
$ACADVER
  1
AC1014
  9
$ACADMAINTVER
 70
     9
  9
$DWGCODEPAGE
  3
ANSI_1252
  9
$INSBASE
 10
47.69110248611747
 20
-40.32323679534168
 30
0.0
  9
$EXTMIN
 10
34.19012932042335
 20
-40.47008196890371
 30
-0.0015258207003583
  9
$EXTMAX
 10
76.19534434112887
 20
-10.4462601156851
 30
0.0000000349246037
  9
$LIMMIN
 10
0.0
 20
0.0
  9
$LIMMAX
 10
17.0
 20
11.0
  9
$ORTHOMODE
 70
     1
  9
$REGENMODE
 70
     1
  9
$FILLMODE
 70
     1
  9
$QTEXTMODE
 70
     0
  9
$MIRRTEXT
 70
     1
  9
$DRAGMODE
 70
     2
  9
$LTSCALE
 40
2.0
  9
$OSMODE
 70
    55
  9
$ATTMODE
 70
     1
  9
$TEXTSIZE
 40
0.2
  9
$TRACEWID
 40
0.05
  9
$TEXTSTYLE
  7
STANDARD
  9
$CLAYER
  8
0
  9
$CELTYPE
  6
BYLAYER
  9
$CECOLOR
 62
   256
  9
$CELTSCALE
 40
1.0
  9
$DELOBJ
 70
     1
  9
$DISPSILH
 70
     0
  9
$DIMSCALE
 40
16.0
  9
$DIMASZ
 40
0.1875
  9
$DIMEXO
 40
0.0625
  9
$DIMDLI
 40
0.38
  9
$DIMRND
 40
0.0
  9
$DIMDLE
 40
0.0
  9
$DIMEXE
 40
0.18
  9
$DIMTP
 40
0.0
  9
$DIMTM
 40
0.0
  9
$DIMTXT
 40
0.125
  9
$DIMCEN
 40
0.09
  9
$DIMTSZ
 40
0.0
  9
$DIMTOL
 70
     0
  9
$DIMLIM
 70
     0
  9
$DIMTIH
 70
     1
  9
$DIMTOH
 70
     1
  9
$DIMSE1
 70
     0
  9
$DIMSE2
 70
     0
  9
$DIMTAD
 70
     0
  9
$DIMZIN
 70
     4
  9
$DIMBLK
  1
_FILLED
  9
$DIMASO
 70
     1
  9
$DIMSHO
 70
     1
  9
$DIMPOST
  1

  9
$DIMAPOST
  1

  9
$DIMALT
 70
     0
  9
$DIMALTD
 70
     2
  9
$DIMALTF
 40
25.4
  9
$DIMLFAC
 40
1.0
  9
$DIMTOFL
 70
     0
  9
$DIMTVP
 40
0.0
  9
$DIMTIX
 70
     0
  9
$DIMSOXD
 70
     0
  9
$DIMSAH
 70
     0
  9
$DIMBLK1
  1

  9
$DIMBLK2
  1

  9
$DIMSTYLE
  2
S_TANDARD
  9
$DIMCLRD
 70
     0
  9
$DIMCLRE
 70
     0
  9
$DIMCLRT
 70
     0
  9
$DIMTFAC
 40
1.0
  9
$DIMGAP
 40
0.09
  9
$DIMJUST
 70
     0
  9
$DIMSD1
 70
     0
  9
$DIMSD2
 70
     0
  9
$DIMTOLJ
 70
     1
  9
$DIMTZIN
 70
     4
  9
$DIMALTZ
 70
     0
  9
$DIMALTTZ
 70
     0
  9
$DIMFIT
 70
     3
  9
$DIMUPT
 70
     0
  9
$DIMUNIT
 70
     2
  9
$DIMDEC
 70
     3
  9
$DIMTDEC
 70
     3
  9
$DIMALTU
 70
     2
  9
$DIMALTTD
 70
     2
  9
$DIMTXSTY
  7
STANDARD
  9
$DIMAUNIT
 70
     0
  9
$LUNITS
 70
     2
  9
$LUPREC
 70
     4
  9
$SKETCHINC
 40
0.1
  9
$FILLETRAD
 40
0.375
  9
$AUNITS
 70
     0
  9
$AUPREC
 70
     0
  9
$MENU
  1
acad
  9
$ELEVATION
 40
0.0
  9
$PELEVATION
 40
0.0
  9
$THICKNESS
 40
0.0
  9
$LIMCHECK
 70
     0
  9
$BLIPMODE
 70
     0
  9
$CHAMFERA
 40
0.0
  9
$CHAMFERB
 40
0.0
  9
$CHAMFERC
 40
0.0
  9
$CHAMFERD
 40
0.0
  9
$SKPOLY
 70
     0
  9
$TDCREATE
 40
2453681.666029074
  9
$TDUPDATE
 40
2453685.473105092
  9
$TDINDWG
 40
0.0312676505
  9
$TDUSRTIMER
 40
0.0312676505
  9
$USRTIMER
 70
     1
  9
$ANGBASE
 50
0.0
  9
$ANGDIR
 70
     0
  9
$PDMODE
 70
     3
  9
$PDSIZE
 40
0.3125
  9
$PLINEWID
 40
0.0
  9
$COORDS
 70
     1
  9
$SPLFRAME
 70
     0
  9
$SPLINETYPE
 70
     6
  9
$SPLINESEGS
 70
     8
  9
$ATTDIA
 70
     0
  9
$ATTREQ
 70
     1
  9
$HANDLING
 70
 22529
  9
$HANDSEED
  5
3F1
  9
$SURFTAB1
 70
     6
  9
$SURFTAB2
 70
     6
  9
$SURFTYPE
 70
     6
  9
$SURFU
 70
     6
  9
$SURFV
 70
     6
  9
$UCSNAME
  2

  9
$UCSORG
 10
0.0
 20
0.0
 30
0.0
  9
$UCSXDIR
 10
1.0
 20
0.0
 30
0.0
  9
$UCSYDIR
 10
0.0
 20
1.0
 30
0.0
  9
$PUCSNAME
  2

  9
$PUCSORG
 10
0.0
 20
0.0
 30
0.0
  9
$PUCSXDIR
 10
1.0
 20
0.0
 30
0.0
  9
$PUCSYDIR
 10
0.0
 20
1.0
 30
0.0
  9
$USERI1
 70
     0
  9
$USERI2
 70
     0
  9
$USERI3
 70
     0
  9
$USERI4
 70
     0
  9
$USERI5
 70
     0
  9
$USERR1
 40
0.0
  9
$USERR2
 40
0.0
  9
$USERR3
 40
0.0
  9
$USERR4
 40
0.0
  9
$USERR5
 40
0.0
  9
$WORLDVIEW
 70
     1
  9
$SHADEDGE
 70
     3
  9
$SHADEDIF
 70
    70
  9
$TILEMODE
 70
     1
  9
$MAXACTVP
 70
    16
  9
$PINSBASE
 10
0.0
 20
0.0
 30
0.0
  9
$PLIMCHECK
 70
     0
  9
$PEXTMIN
 10
1.000000000000000E+20
 20
1.000000000000000E+20
 30
1.000000000000000E+20
  9
$PEXTMAX
 10
-1.000000000000000E+20
 20
-1.000000000000000E+20
 30
-1.000000000000000E+20
  9
$PLIMMIN
 10
0.0
 20
0.0
  9
$PLIMMAX
 10
12.0
 20
9.0
  9
$UNITMODE
 70
     0
  9
$VISRETAIN
 70
     0
  9
$PLINEGEN
 70
     1
  9
$PSLTSCALE
 70
     0
  9
$TREEDEPTH
 70
  3020
  9
$PICKSTYLE
 70
     1
  9
$CMLSTYLE
  2
STANDARD
  9
$CMLJUST
 70
     0
  9
$CMLSCALE
 40
1.0
  9
$PROXYGRAPHICS
 70
     0
  9
$MEASUREMENT
 70
     0
  0
ENDSEC
  0
SECTION
  2
CLASSES
  0
CLASS
  1
ACDBDICTIONARYWDFLT
  2
AcDbDictionaryWithDefault
  3
AutoCAD 2000
 90
        0
280
     0
281
     0
  0
CLASS
  1
ACDBPLACEHOLDER
  2
AcDbPlaceHolder
  3
AutoCAD 2000
 90
        0
280
     0
281
     0
  0
CLASS
  1
LAYOUT
  2
AcDbLayout
  3
AutoCAD 2000
 90
        0
280
     0
281
     0
  0
CLASS
  1
LWPOLYLINE
  2
AcDbPolyline
  3
AutoCAD 2000
 90
        0
280
     0
281
     1
  0
CLASS
  1
IMAGE
  2
AcDbRasterImage
  3
ISM
 90
      127
280
     0
281
     1
  0
CLASS
  1
OLE2FRAME
  2
AcDbOle2Frame
  3
AutoCAD 2000
 90
        0
280
     0
281
     1
  0
CLASS
  1
HATCH
  2
AcDbHatch
  3
AutoCAD 2000
 90
        0
280
     0
281
     1
  0
CLASS
  1
DICTIONARYVAR
  2
AcDbDictionaryVar
  3
AutoCAD 2000
 90
        0
280
     0
281
     0
  0
CLASS
  1
RASTERVARIABLES
  2
AcDbRasterVariables
  3
ISM
 90
        0
280
     0
281
     0
  0
CLASS
  1
IMAGEDEF
  2
AcDbRasterImageDef
  3
ISM
 90
        0
280
     0
281
     0
  0
CLASS
  1
IMAGEDEF_REACTOR
  2
AcDbRasterImageDefReactor
  3
ISM
 90
        1
280
     0
281
     0
  0
CLASS
  1
IDBUFFER
  2
AcDbIdBuffer
  3
AutoCAD 2000
 90
        0
280
     0
281
     0
  0
CLASS
  1
SPATIAL_FILTER
  2
AcDbSpatialFilter
  3
AutoCAD 2000
 90
        0
280
     0
281
     0
  0
CLASS
  1
XRECORD
  2
AcDbXrecord
  3
AutoCAD 2000
 90
        0
280
     0
281
     0
  0
CLASS
  1
SORTENTSTABLE
  2
AcDbSortentsTable
  3
AutoCAD 2000
 90
        0
280
     0
281
     0
  0
CLASS
  1
LAYER_INDEX
  2
AcDbLayerIndex
  3
AutoCAD 2000
 90
        0
280
     0
281
     0
  0
CLASS
  1
SPATIAL_INDEX
  2
AcDbSpatialIndex
  3
AutoCAD 2000
 90
        0
280
     0
281
     0
  0
CLASS
  1
OBJECT_PTR
  2
CAseDLPNTableRecord
  3
ASE-LPNTableRecord
 90
        1
280
     0
281
     0
  0
CLASS
  1
PLOTSETTINGS
  2
AcDbPlotSettings
  3
AutoCAD 2000
 90
        0
280
     0
281
     0
  0
CLASS
  1
VBA_PROJECT
  2
AcDbVbaProject
  3
acadvba
 90
        0
280
     0
281
     0
  0
CLASS
  1
WIPEOUT
  2
AcDbWipeout
  3
WipeOut|AutoCAD Express Tool|expresstools@autodesk.com
 90
      127
280
     1
281
     1
  0
CLASS
  1
WIPEOUTVARIABLES
  2
AcDbWipeoutVariables
  3
WipeOut|AutoCAD Express Tool|expresstools@autodesk.com
 90
        0
280
     1
281
     0
  0
CLASS
  1
RTEXT
  2
RText
  3
RText|AutoCAD Express Tool|expresstools@autodesk.com
 90
        0
280
     1
281
     1
  0
CLASS
  1
ARCALIGNEDTEXT
  2
AcDbArcAlignedText
  3
ATEXT|AutoCAD Express Tool|expresstools@autodesk.com
 90
        0
280
     1
281
     1
  0
CLASS
  1
LONG_TRANSACTION
  2
AcDbLongTransaction
  3
AutoCAD 2000
 90
        0
280
     0
281
     0
  0
CLASS
  1
LWPOLYLINE
  2
AcDbPolyline
  3
AutoCAD 2000
 90
        0
280
     0
281
     1
  0
CLASS
  1
HATCH
  2
AcDbHatch
  3
AutoCAD 2000
 90
        0
280
     0
281
     1
  0
CLASS
  1
XRECORD
  2
AcDbXrecord
  3
AutoCAD 2000
 90
        0
280
     0
281
     0
  0
CLASS
  1
LONG_TRANSACTION
  2
AcDbLongTransaction
  3
AutoCAD 2000
 90
        0
280
     0
281
     0
  0
CLASS
  1
LWPOLYLINE
  2
AcDbPolyline
  3
AutoCAD 2000
 90
        0
280
     0
281
     1
  0
CLASS
  1
HATCH
  2
AcDbHatch
  3
AutoCAD 2000
 90
        0
280
     0
281
     1
  0
CLASS
  1
XRECORD
  2
AcDbXrecord
  3
AutoCAD 2000
 90
        0
280
     0
281
     0
  0
ENDSEC
  0
SECTION
  2
TABLES
  0
TABLE
  2
VPORT
  5
18
330
0
100
AcDbSymbolTable
 70
     3
  0
VPORT
  5
3CD
330
18
100
AcDbSymbolTableRecord
100
AcDbViewportTableRecord
  2
*ACTIVE
 70
     0
 10
0.0
 20
0.0
 11
1.0
 21
1.0
 12
55.19273676482526
 22
-25.45817103949711
 13
0.0
 23
0.0
 14
1.0
 24
1.0
 15
0.0
 25
0.0
 16
0.0
 26
0.0
 36
1.0
 17
0.0
 27
0.0
 37
0.0
 40
34.31027370066944
 41
1.786792452830188
 42
50.0
 43
0.0
 44
0.0
 50
0.0
 51
0.0
 71
     0
 72
   100
 73
     1
 74
     1
 75
     0
 76
     0
 77
     0
 78
     0
  0
ENDTAB
  0
TABLE
  2
LTYPE
  5
13
330
0
100
AcDbSymbolTable
 70
     3
  0
LTYPE
  5
14
330
13
100
AcDbSymbolTableRecord
100
AcDbLinetypeTableRecord
  2
BYBLOCK
 70
     0
  3

 72
    65
 73
     0
 40
0.0
  0
LTYPE
  5
15
330
13
100
AcDbSymbolTableRecord
100
AcDbLinetypeTableRecord
  2
BYLAYER
 70
     0
  3

 72
    65
 73
     0
 40
0.0
  0
LTYPE
  5
6
330
13
100
AcDbSymbolTableRecord
100
AcDbLinetypeTableRecord
  2
CONTINUOUS
 70
     0
  3
Solid line
 72
    65
 73
     0
 40
0.0
  0
LTYPE
  5
37
330
13
100
AcDbSymbolTableRecord
100
AcDbLinetypeTableRecord
  2
CENTER
 70
     0
  3
____ _ ____ _ ____ _ ____ _ ____ _ ____ _ ____
 72
    65
 73
     4
 40
0.6
 49
0.375
 74
     0
 49
-0.075
 74
     0
 49
0.075
 74
     0
 49
-0.075
 74
     0
  0
LTYPE
  5
29
330
13
100
AcDbSymbolTableRecord
100
AcDbLinetypeTableRecord
  2
HIDDEN
 70
     0
  3
- - - - - - - - - - - - - - - - - - - -
 72
    65
 73
     2
 40
0.2
 49
0.1
 74
     0
 49
-0.1
 74
     0
  0
ENDTAB
  0
TABLE
  2
LAYER
  5
F
330
0
100
AcDbSymbolTable
 70
     2
  0
LAYER
  5
4
330
F
100
AcDbSymbolTableRecord
100
AcDbLayerTableRecord
  2
0
 70
     0
 62
     7
  6
CONTINUOUS
  0
LAYER
  5
36
330
F
100
AcDbSymbolTableRecord
100
AcDbLayerTableRecord
  2
CENTER
 70
     0
 62
     1
  6
CENTER
  0
ENDTAB
  0
TABLE
  2
STYLE
  5
10
330
0
100
AcDbSymbolTable
 70
     1
  0
STYLE
  5
11
330
10
100
AcDbSymbolTableRecord
100
AcDbTextStyleTableRecord
  2
STANDARD
 70
     0
 40
0.0
 41
0.8
 50
0.0
 71
     0
 42
0.2
  3
txt
  4

  0
ENDTAB
  0
TABLE
  2
VIEW
  5
16
330
0
100
AcDbSymbolTable
 70
     0
  0
ENDTAB
  0
TABLE
  2
UCS
  5
17
330
0
100
AcDbSymbolTable
 70
     0
  0
ENDTAB
  0
TABLE
  2
APPID
  5
1A
330
0
100
AcDbSymbolTable
 70
     1
  0
APPID
  5
1B
330
1A
100
AcDbSymbolTableRecord
100
AcDbRegAppTableRecord
  2
ACAD
 70
     0
  0
ENDTAB
  0
TABLE
  2
DIMSTYLE
  5
1C
330
0
100
AcDbSymbolTable
 70
     1
  0
DIMSTYLE
105
1D
330
1C
100
AcDbSymbolTableRecord
100
AcDbDimStyleTableRecord
  2
S_TANDARD
 70
     0
  3

  4

  5
_FILLED
  6

  7

 40
16.0
 41
0.1875
 42
0.0625
 43
0.38
 44
0.18
 45
0.0
 46
0.0
 47
0.0
 48
0.0
140
0.125
141
0.09
142
0.0
143
25.4
144
1.0
145
0.0
146
1.0
147
0.09
 71
     0
 72
     0
 73
     1
 74
     1
 75
     0
 76
     0
 77
     0
 78
     4
170
     0
171
     2
172
     0
173
     0
174
     0
175
     0
176
     0
177
     0
178
     0
270
     2
271
     3
272
     3
273
     2
274
     2
340
11
275
     0
280
     0
281
     0
282
     0
283
     1
284
     4
285
     0
286
     0
287
     3
288
     0
  0
ENDTAB
  0
TABLE
  2
BLOCK_RECORD
  5
1
330
0
100
AcDbSymbolTable
 70
     1
  0
BLOCK_RECORD
  5
2
102
{ACAD_XDICTIONARY
360
388
102
}
330
1
100
AcDbSymbolTableRecord
100
AcDbBlockTableRecord
  2
*MODEL_SPACE
  0
BLOCK_RECORD
  5
B
102
{ACAD_XDICTIONARY
360
38E
102
}
330
1
100
AcDbSymbolTableRecord
100
AcDbBlockTableRecord
  2
*PAPER_SPACE
  0
BLOCK_RECORD
  5
1E
330
1
100
AcDbSymbolTableRecord
100
AcDbBlockTableRecord
  2
_FILLED
  0
ENDTAB
  0
ENDSEC
  0
SECTION
  2
BLOCKS
  0
BLOCK
  5
3
330
2
100
AcDbEntity
  8
0
100
AcDbBlockBegin
  2
*MODEL_SPACE
 70
     0
 10
0.0
 20
0.0
 30
0.0
  3
*MODEL_SPACE
  1

  0
ENDBLK
  5
7
330
2
100
AcDbEntity
  8
0
100
AcDbBlockEnd
  0
BLOCK
  5
C
330
B
100
AcDbEntity
 67
     1
  8
0
100
AcDbBlockBegin
  2
*PAPER_SPACE
 70
     0
 10
0.0
 20
0.0
 30
0.0
  3
*PAPER_SPACE
  1

  0
ENDBLK
  5
D
330
B
100
AcDbEntity
 67
     1
  8
0
100
AcDbBlockEnd
  0
BLOCK
  5
20
330
1E
100
AcDbEntity
  8
0
100
AcDbBlockBegin
  2
_FILLED
 70
     0
 10
0.0
 20
0.0
 30
0.0
  3
_FILLED
  1

  0
SOLID
  5
1F
330
1E
100
AcDbEntity
  8
0
  6
BYBLOCK
 62
     0
100
AcDbTrace
 10
0.0
 20
0.0
 30
0.0
 11
-1.0
 21
0.1666666667
 31
0.0
 12
-1.0
 22
-0.1666666667
 32
0.0
 13
-1.0
 23
-0.1666666667
 33
0.0
  0
ENDBLK
  5
21
330
1E
100
AcDbEntity
  8
0
  6
BYBLOCK
 62
     0
100
AcDbBlockEnd
  0
ENDSEC
  0
SECTION
  2
ENTITIES
  0
LWPOLYLINE
  5
28
330
2
100
AcDbEntity
  8
0
  6
HIDDEN
100
AcDbPolyline
 90
       85
 70
     0
 43
0.0
 10
65.87758701091747
 20
-33.22543413934168
 10
65.91618217571746
 20
-32.77977139054168
 10
65.95290508771748
 20
-32.35394708334168
 10
65.98813427491748
 20
-31.94371491054168
 10
66.02219364131747
 20
-31.54543708654168
 10
66.05522473731747
 20
-31.15758521934167
 10
66.08719411971748
 20
-30.78070520974168
 10
66.11819185891746
 20
-30.41396767854168
 10
66.14850138051747
 20
-30.05435105294167
 10
66.17849131331746
 20
-29.69794820494168
 10
66.20859886211746
 20
-29.34018607694167
 10
66.23960826371746
 20
-28.97275192174168
 10
66.27294695971747
 20
-28.58059523694168
 10
66.31093260771746
 20
-28.14005698414168
 10
66.35512942051747
 20
-27.63942680814167
 10
66.40283711331747
 20
-27.11573575694168
 10
66.44864925571747
 20
-26.62819330574168
 10
66.49093722051748
 20
-26.18901902894168
 10
66.53334661891747
 20
-25.75649590734168
 10
66.57938111011748
 20
-25.29048870894168
 10
66.62589506211748
 20
-24.81523781134168
 10
66.66768692771748
 20
-24.37840124494167
 10
66.70429056291746
 20
-23.98324684974168
 10
66.73594258211747
 20
-23.62711992334168
 10
66.76286891651748
 20
-23.30837122894168
 10
66.78546356931747
 20
-23.02396800174168
 10
66.80420606051746
 20
-22.77048212494168
 10
66.81962044451748
 20
-22.54451081454168
 10
66.83216335491747
 20
-22.34295897454168
 10
66.84235679651746
 20
-22.16293061454167
 10
66.85229001251747
 20
-22.00211860334167
 10
66.86468172931748
 20
-21.85877721454168
 10
66.88169576131747
 20
-21.73184762734167
 10
66.90473236291746
 20
-21.62146071374167
 10
66.93309381891748
 20
-21.52714966414168
 10
66.96549821891747
 20
-21.44709053454167
 10
67.00132205091748
 20
-21.37851385134168
 10
67.04053227011747
 20
-21.31885385614168
 10
67.08338843331748
 20
-21.26626463214167
 10
67.13000266691747
 20
-21.21979019214168
 10
67.18066673091747
 20
-21.17885048014167
 10
67.23696943971749
 20
-21.14238620174167
 10
67.30193218211747
 20
-21.10923463694168
 10
67.37869778211749
 20
-21.07908643854167
 10
67.46910107171746
 20
-21.05243949454167
 10
67.57360075331746
 20
-21.02974941934167
 10
67.69252124291748
 20
-21.01085076014168
 10
67.82614780771746
 20
-20.99529606094167
 10
67.97566799971747
 20
-20.98259202894168
 10
68.14287177731748
 20
-20.97226414894168
 10
68.33099510531747
 20
-20.96378216654167
 10
68.54568379971746
 20
-20.95644808654167
 10
68.77941547811747
 20
-20.94947247694168
 10
69.00471559331745
 20
-20.94209024174168
 10
69.20657080611746
 20
-20.93356882574167
 10
69.38709960451745
 20
-20.92316097614168
 10
69.54811805091748
 20
-20.91033776494167
 10
69.69132538371747
 20
-20.89469507534168
 10
69.81830252291747
 20
-20.87580344014168
 10
69.92999534851747
 20
-20.85317832974168
 10
70.02712109731746
 20
-20.82659845294168
 10
70.11010150691745
 20
-20.79642032494168
 10
70.17979365091747
 20
-20.76340917774167
 10
70.23850923971747
 20
-20.72794758414168
 10
70.28954877091746
 20
-20.68931105454167
 10
70.33546605571746
 20
-20.64620084334168
 10
70.37759507171748
 20
-20.59733860494167
 10
70.41663247651746
 20
-20.54115922254168
 10
70.45319418531747
 20
-20.47514098094168
 10
70.48734964931748
 20
-20.39635110094168
 10
70.51831563811745
 20
-20.30303540494168
 10
70.54524844771748
 20
-20.19455617294168
 10
70.56789201731746
 20
-20.07025402254168
 10
70.58665019811747
 20
-19.92956736494168
 10
70.60229062851746
 20
-19.77117857134167
 10
70.61577794531746
 20
-19.59331861294168
 10
70.62829644931747
 20
-19.39395202734167
 10
70.64130615491746
 20
-19.17062526414167
 10
70.65701304131747
 20
-18.91917408974168
 10
70.67776859491747
 20
-18.63583681454167
 10
70.70264736291747
 20
-18.33539195374167
 10
70.72806948771748
 20
-18.05194779854168
 10
70.75184722531748
 20
-17.79951679534168
 10
70.77339275971747
 20
-17.57730264334168
 10
70.79265912771745
 20
-17.38080994574167
  0
LWPOLYLINE
  5
2A
330
2
100
AcDbEntity
  8
0
  6
HIDDEN
100
AcDbPolyline
 90
       85
 70
     0
 43
0.0
 10
44.50461796291747
 20
-33.22543413934168
 10
44.46602279811748
 20
-32.77977139054168
 10
44.42929988611746
 20
-32.35394708334168
 10
44.39407069891745
 20
-31.94371491054168
 10
44.36001133091747
 20
-31.54543708654168
 10
44.32698023491747
 20
-31.15758521934167
 10
44.29501085411746
 20
-30.78070520974168
 10
44.26401311331747
 20
-30.41396767854168
 10
44.23370359331747
 20
-30.05435105294167
 10
44.20371365891748
 20
-29.69794820494168
 10
44.17360611171747
 20
-29.34018607694167
 10
44.14259670851746
 20
-28.97275192174168
 10
44.10925801251747
 20
-28.58059523694168
 10
44.07127236451748
 20
-28.14005698414168
 10
44.02707555331747
 20
-27.63942680814167
 10
43.97936786051746
 20
-27.11573575694168
 10
43.93355571651747
 20
-26.62819330574168
 10
43.89126775171746
 20
-26.18901902894168
 10
43.84885835331746
 20
-25.75649590734168
 10
43.80282386371746
 20
-25.29048870894168
 10
43.75630991011746
 20
-24.81523781134168
 10
43.71451804451746
 20
-24.37840124494167
 10
43.67791441091748
 20
-23.98324684974168
 10
43.64626239171747
 20
-23.62711992334168
 10
43.61933605571747
 20
-23.30837122894168
 10
43.59674140451747
 20
-23.02396800174168
 10
43.57799891331746
 20
-22.77048212494168
 10
43.56258452771746
 20
-22.54451081454168
 10
43.55004161731748
 20
-22.34295897454168
 10
43.53984817571748
 20
-22.16293061454167
 10
43.52991496131747
 20
-22.00211860334167
 10
43.51752324291746
 20
-21.85877721454168
 10
43.50050921091747
 20
-21.73184762734167
 10
43.47747261091746
 20
-21.62146071374167
 10
43.44911115331746
 20
-21.52714966414168
 10
43.41670675331747
 20
-21.44709053454167
 10
43.38088292291746
 20
-21.37851385134168
 10
43.34167270211747
 20
-21.31885385614168
 10
43.29881654051746
 20
-21.26626463214167
 10
43.25220230531747
 20
-21.21979019214168
 10
43.20153824131748
 20
-21.17885048014167
 10
43.14523553251746
 20
-21.14238620174167
 10
43.08027279171747
 20
-21.10923463694168
 10
43.00350719011746
 20
-21.07908643854167
 10
42.91310390051748
 20
-21.05243949454167
 10
42.80860421891747
 20
-21.02974941934167
 10
42.68968372931746
 20
-21.01085076014168
 10
42.55605716611748
 20
-20.99529606094167
 10
42.40653697251747
 20
-20.98259202894168
 10
42.23933319491746
 20
-20.97226414894168
 10
42.05120986851747
 20
-20.96378216654167
 10
41.83652117251748
 20
-20.95644808654167
 10
41.60278949571747
 20
-20.94947247694168
 10
41.37748937891745
 20
-20.94209024174168
 10
41.17563416771747
 20
-20.93356882574167
 10
40.99510536931745
 20
-20.92316097614168
 10
40.83408692131746
 20
-20.91033776494167
 10
40.69087959011747
 20
-20.89469507534168
 10
40.56390244931748
 20
-20.87580344014168
 10
40.45220962371746
 20
-20.85317832974168
 10
40.35508387491748
 20
-20.82659845294168
 10
40.27210346691745
 20
-20.79642032494168
 10
40.20241132291746
 20
-20.76340917774167
 10
40.14369573411747
 20
-20.72794758414168
 10
40.09265620131748
 20
-20.68931105454167
 10
40.04673891811748
 20
-20.64620084334168
 10
40.00460990051746
 20
-20.59733860494167
 10
39.96557249571748
 20
-20.54115922254168
 10
39.92901078691747
 20
-20.47514098094168
 10
39.89485532451746
 20
-20.39635110094168
 10
39.86388933411745
 20
-20.30303540494168
 10
39.83695652451746
 20
-20.19455617294168
 10
39.81431295651748
 20
-20.07025402254168
 10
39.79555477411747
 20
-19.92956736494168
 10
39.77991434531748
 20
-19.77117857134167
 10
39.76642702691748
 20
-19.59331861294168
 10
39.75390852451747
 20
-19.39395202734167
 10
39.74089881891746
 20
-19.17062526414167
 10
39.72519193251747
 20
-18.91917408974168
 10
39.70443637891747
 20
-18.63583681454167
 10
39.67955760931747
 20
-18.33539195374167
 10
39.65413548451746
 20
-18.05194779854168
 10
39.63035774851746
 20
-17.79951679534168
 10
39.60881221251748
 20
-17.57730264334168
 10
39.58954584451745
 20
-17.38080994574167
  0
LWPOLYLINE
  5
2B
330
2
100
AcDbEntity
  8
0
100
AcDbPolyline
 90
        5
 70
     0
 43
0.0
 10
72.30870083491746
 20
-32.55444312174168
 10
72.87812652291748
 20
-31.82912737774167
 10
73.23796670051746
 20
-31.07817144334168
 10
73.38881251171748
 20
-30.48767743374168
 10
73.42203450851747
 20
-30.19179938094168
  0
LINE
  5
2C
330
2
100
AcDbEntity
  8
0
100
AcDbLine
 10
66.23280293251747
 20
-32.01676259694169
 30
0.0
 11
66.31548452771747
 21
-31.04751290254168
 31
0.0
  0
LINE
  5
2D
330
2
100
AcDbEntity
  8
0
100
AcDbLine
 10
66.31548452771747
 20
-31.04751290254168
 30
0.0
 11
66.25467838531747
 21
-31.76128034574169
 31
0.0
  0
LINE
  5
2E
330
2
100
AcDbEntity
  8
0
100
AcDbLine
 10
66.06636993251746
 20
-31.02636141934169
 30
0.0
 11
66.00557556931747
 21
-31.73996972174168
 31
0.0
  0
LINE
  5
2F
330
2
100
AcDbEntity
  8
0
100
AcDbLine
 10
66.06636993251746
 20
-31.02636141934169
 30
0.0
 11
66.00557556931747
 21
-31.73996972174168
 31
0.0
  0
LWPOLYLINE
  5
30
330
2
100
AcDbEntity
  8
0
100
AcDbPolyline
 90
       23
 70
     0
 43
0.0
 10
58.70026286851748
 20
-30.09994500814168
 10
58.77737002851748
 20
-30.27799766574168
 10
58.85785831171748
 20
-30.45416389134167
 10
58.94166533251746
 20
-30.62668615214167
 10
59.02927798051746
 20
-30.79503040014167
 10
59.12154327171745
 20
-30.95929981134168
 10
59.21878149571748
 20
-31.11870363374168
 10
59.32127573891747
 20
-31.27221891054168
 10
59.42953107651746
 20
-31.41920788174167
 10
59.54407523331747
 20
-31.55893900654167
 10
59.66578409411747
 20
-31.69124417774168
 10
59.79461926051746
 20
-31.81528975854168
 10
59.92939592611747
 20
-31.92917178414168
 10
60.06708392611748
 20
-32.02997987694168
 10
60.19426046051748
 20
-32.11022758254168
 10
60.30272425411746
 20
-32.16965560014168
 10
60.39479562051747
 20
-32.21380381774167
 10
60.47253957251746
 20
-32.24664530734168
 10
60.53719710211746
 20
-32.27091160654168
 10
60.58958443651746
 20
-32.28854541934168
 10
60.63009105891746
 20
-32.30093199854167
 10
60.65913364451748
 20
-32.30910960974168
 10
60.67700924291748
 20
-32.31380749134167
  0
LWPOLYLINE
  5
31
330
2
100
AcDbEntity
  8
0
100
AcDbPolyline
 90
       55
 70
     0
 43
0.0
 10
67.67586163811748
 20
-23.28826723374167
 10
67.63043454051748
 20
-23.51635804814168
 10
67.59081316131747
 20
-23.74521477934167
 10
67.55665019651747
 20
-23.97475192014167
 10
67.52759833891747
 20
-24.20488396494167
 10
67.50331028451748
 20
-24.43552540334168
 10
67.48343872451747
 20
-24.66659073134167
 10
67.46718915491746
 20
-24.90548526094168
 10
67.45489420291747
 20
-25.14464634254167
 10
67.44617175491746
 20
-25.38397989934168
 10
67.43875982051747
 20
-25.75742631214168
 10
67.43745509731747
 20
-26.13100051694168
 10
67.44060418051748
 20
-26.50463960014167
 10
67.44655366211748
 20
-26.87828064974168
 10
67.45365013731748
 20
-27.25186075374168
 10
67.46024019811748
 20
-27.62531699854168
 10
67.46467043971748
 20
-27.99858647374168
 10
67.46528745411746
 20
-28.37160626414168
 10
67.46085847651747
 20
-28.75010689774168
 10
67.45234320451746
 20
-29.12852596974168
 10
67.44129180931747
 20
-29.50710422734168
 10
67.42925445891748
 20
-29.88608241934167
 10
67.41778132291748
 20
-30.26570128974167
 10
67.40842257091748
 20
-30.64620158734168
 10
67.40606255971747
 20
-30.75662914254167
 10
67.40246348451748
 20
-30.86690016654168
 10
67.39607850371746
 20
-30.97676387694168
 10
67.38536077411746
 20
-31.08596949454168
 10
67.36876345411747
 20
-31.19426624014168
 10
67.34778099011745
 20
-31.29058063214167
 10
67.32100647491748
 20
-31.38569274414168
 10
67.28864393571746
 20
-31.47933659214167
 10
67.25089739651747
 20
-31.57124619694168
 10
67.20797088451746
 20
-31.66115557614168
 10
67.16006842371746
 20
-31.74879874894168
 10
67.10129007171747
 20
-31.84316670254168
 10
67.03695076771746
 20
-31.93409713934168
 10
66.96737570211746
 20
-32.02127598574168
 10
66.89289006051746
 20
-32.10438916174167
 10
66.81381903011746
 20
-32.18312259374167
 10
66.73048779811748
 20
-32.25716220174168
 10
66.64322155171745
 20
-32.32619390894168
 10
66.55234547651748
 20
-32.38990364014168
 10
66.45818476131748
 20
-32.44797731534168
 10
66.36106459171748
 20
-32.50010085934167
 10
66.27407767331746
 20
-32.54060820654167
 10
66.18530548771747
 20
-32.57671558414168
 10
66.09497212771748
 20
-32.60880121134167
 10
66.00330168291748
 20
-32.63724330894167
 10
65.86303512931746
 20
-32.67407900974168
 10
65.72100613571746
 20
-32.70478663374167
 10
65.57798308451748
 20
-32.73066305774168
 10
65.43473435811748
 20
-32.75300516014168
 10
65.29202834051748
 20
-32.77310981614167
 10
65.15063341411746
 20
-32.79227390254168
  0
LWPOLYLINE
  5
32
330
2
100
AcDbEntity
  8
0
100
AcDbPolyline
 90
       19
 70
     0
 43
0.0
 10
57.22335510051746
 20
-32.27938528974168
 10
57.18961851331747
 20
-32.27596813934168
 10
57.15619349731747
 20
-32.27197228974168
 10
57.12232975651748
 20
-32.26660088494168
 10
57.08773645571747
 20
-32.25772169614168
 10
57.05245995971748
 20
-32.24104650734167
 10
57.01658127331748
 20
-32.21062499694168
 10
56.98285551491747
 20
-32.16577752014168
 10
56.95272057091748
 20
-32.10988852974168
 10
56.92460512931749
 20
-32.04253123054167
 10
56.89781758531748
 20
-31.96431731054168
 10
56.87190955651747
 20
-31.87555991854168
 10
56.84656644771746
 20
-31.77650172654168
 10
56.82114075171748
 20
-31.66569589294168
 10
56.79481532451745
 20
-31.54029944174168
 10
56.76741983971746
 20
-31.40025824014168
 10
56.73891904451747
 20
-31.24653414094167
 10
56.70933933251745
 20
-31.08063798734168
 10
56.67875182051748
 20
-30.90482374414168
  0
LWPOLYLINE
  5
33
330
2
100
AcDbEntity
  8
0
100
AcDbPolyline
 90
       20
 70
     0
 43
0.0
 10
53.15884987331748
 20
-32.27938528974168
 10
53.19258645891747
 20
-32.27596813934168
 10
53.22601147651747
 20
-32.27197228974168
 10
53.25987521571747
 20
-32.26660088494168
 10
53.29446851811747
 20
-32.25772169614168
 10
53.32974501251746
 20
-32.24104650734167
 10
53.36562369891746
 20
-32.21062499694168
 10
53.39934945731747
 20
-32.16577752014168
 10
53.42948440131746
 20
-32.10988852974168
 10
53.45759984291746
 20
-32.04253123054167
 10
53.48438738691746
 20
-31.96431731054168
 10
53.51029541571747
 20
-31.87555991854168
 10
53.53563852611748
 20
-31.77650172654168
 10
53.56106422051746
 20
-31.66569589294168
 10
53.58738964771745
 20
-31.54029944174168
 10
53.61478513251748
 20
-31.40025824014168
 10
53.64328592771747
 20
-31.24653414094167
 10
53.67286564131745
 20
-31.08063798734168
 10
53.70345315331746
 20
-30.90482374414168
 10
53.76972358851748
 20
-30.51810944014167
  0
LWPOLYLINE
  5
34
330
2
100
AcDbEntity
  8
0
100
AcDbPolyline
 90
       23
 70
     0
 43
0.0
 10
51.68194210531746
 20
-30.09994500814168
 10
51.60483322051746
 20
-30.27800154894168
 10
51.52434542851747
 20
-30.45416651054168
 10
51.44053888451748
 20
-30.62668765454167
 10
51.35292667011748
 20
-30.79503099534167
 10
51.26066199811749
 20
-30.95929930414168
 10
51.16342468131747
 20
-31.11870174574168
 10
51.06093128931746
 20
-31.27221597454168
 10
50.95267671971746
 20
-31.41920424174168
 10
50.83813342531747
 20
-31.55893475854168
 10
50.71642603331747
 20
-31.69123889774168
 10
50.58759271491746
 20
-31.81528343374167
 10
50.45281727011746
 20
-31.92916530574168
 10
50.31512967811747
 20
-32.02997402414168
 10
50.18795268291748
 20
-32.11022279854168
 10
50.07948813251747
 20
-32.16965181294168
 10
49.98741606211746
 20
-32.21380080974167
 10
49.90967138371747
 20
-32.24664293454168
 10
49.84501308451746
 20
-32.27090976174167
 10
49.79262491971747
 20
-32.28854401934167
 10
49.75211737571746
 20
-32.30093098734168
 10
49.72307377731747
 20
-32.30910894574167
 10
49.70519573091746
 20
-32.31380749134167
  0
LINE
  5
35
330
2
100
AcDbEntity
  8
CENTER
 48
4.0
100
AcDbLine
 10
47.69110248611747
 20
-38.84299075854169
 30
0.0
 11
47.69110248611747
 21
-29.54409542894168
 31
0.0
  0
LINE
  5
38
330
2
100
AcDbEntity
  8
0
100
AcDbLine
 10
44.37662940291747
 20
-31.73996972174168
 30
0.0
 11
44.31583503971748
 21
-31.02636141934169
 31
0.0
  0
LINE
  5
39
330
2
100
AcDbEntity
  8
0
100
AcDbLine
 10
44.37662940291747
 20
-31.73996972174168
 30
0.0
 11
44.31583503971748
 21
-31.02636141934169
 31
0.0
  0
LINE
  5
3A
330
2
100
AcDbEntity
  8
0
100
AcDbLine
 10
44.12752658691746
 20
-31.76128034574169
 30
0.0
 11
44.06672044931747
 21
-31.04751294414168
 31
0.0
  0
LINE
  5
3B
330
2
100
AcDbEntity
  8
0
100
AcDbLine
 10
44.08603491651746
 20
-31.27481489934168
 30
0.0
 11
44.16666038531746
 21
-32.21784470254169
 31
0.0
  0
LWPOLYLINE
  5
3C
330
2
100
AcDbEntity
  8
0
100
AcDbPolyline
 90
        5
 70
     0
 43
0.0
 10
36.96014984451747
 20
-30.19146420174168
 10
36.99353855651748
 20
-30.48857914574168
 10
37.14470761571746
 20
-31.07951768654167
 10
37.50461816771746
 20
-31.82999892814168
 10
38.07350511171748
 20
-32.55444412494168
  0
LWPOLYLINE
  5
3D
330
2
100
AcDbEntity
  8
0
100
AcDbPolyline
 90
       55
 70
     0
 43
0.0
 10
42.70634333411746
 20
-23.28826723374167
 10
42.75177043331746
 20
-23.51635804814168
 10
42.79139181091747
 20
-23.74521477934167
 10
42.82555477731747
 20
-23.97475192014167
 10
42.85460663331747
 20
-24.20488396494167
 10
42.87889468931746
 20
-24.43552540334168
 10
42.89876624771747
 20
-24.66659073134167
 10
42.91501581891748
 20
-24.90548526094168
 10
42.92731076931747
 20
-25.14464634254167
 10
42.93603321891746
 20
-25.38397989934168
 10
42.94344515331746
 20
-25.75742631214168
 10
42.94474987651748
 20
-26.13100051694168
 10
42.94160079331746
 20
-26.50463960014167
 10
42.93565131171746
 20
-26.87828064974168
 10
42.92855483651746
 20
-27.25186075374168
 10
42.92196477571747
 20
-27.62531699854168
 10
42.91753453411746
 20
-27.99858647374168
 10
42.91691751971746
 20
-28.37160626414168
 10
42.92134649731747
 20
-28.75010689774168
 10
42.92986176771748
 20
-29.12852596974168
 10
42.94091316451747
 20
-29.50710422734168
 10
42.95295051491746
 20
-29.88608241934167
 10
42.96442365091746
 20
-30.26570128974167
 10
42.97378240131746
 20
-30.64620158734168
 10
42.97614241251747
 20
-30.75662914254167
 10
42.97974148771745
 20
-30.86690016654168
 10
42.98612647011748
 20
-30.97676387694168
 10
42.99684419971746
 20
-31.08596949454168
 10
43.01344151811747
 20
-31.19426624014168
 10
43.03442398211745
 20
-31.29058063214167
 10
43.06119849731746
 20
-31.38569274414168
 10
43.09356103811746
 20
-31.47933659214167
 10
43.13130757731747
 20
-31.57124619694168
 10
43.17423408931747
 20
-31.66115557614168
 10
43.22213654851748
 20
-31.74879874894168
 10
43.28091490211747
 20
-31.84316670254168
 10
43.34525420451746
 20
-31.93409713934168
 10
43.41482927011748
 20
-32.02127598574168
 10
43.48931491171746
 20
-32.10438916174167
 10
43.56838594211746
 20
-32.18312259374167
 10
43.65171717411747
 20
-32.25716220174168
 10
43.73898342051745
 20
-32.32619390894168
 10
43.82985949571747
 20
-32.38990364014168
 10
43.92402021091746
 20
-32.44797731534168
 10
44.02114038051746
 20
-32.50010085934167
 10
44.10812730051747
 20
-32.54060820654167
 10
44.19689948611747
 20
-32.57671558414168
 10
44.28723284611746
 20
-32.60880121134167
 10
44.37890329091746
 20
-32.63724330894167
 10
44.51916984291748
 20
-32.67407900974168
 10
44.66119883651745
 20
-32.70478663374167
 10
44.80422188771746
 20
-32.73066305774168
 10
44.94747061411746
 20
-32.75300516014168
 10
45.09017663171746
 20
-32.77310981614167
 10
45.23157155811747
 20
-32.79227390254168
  0
LINE
  5
3E
330
2
100
AcDbEntity
  8
0
  6
HIDDEN
100
AcDbLine
 10
49.12860248611747
 20
-35.35448663534168
 30
0.0
 11
61.25360248611747
 21
-35.35448679534168
 31
0.0
  0
LINE
  5
3F
330
2
100
AcDbEntity
  8
0
100
AcDbLine
 10
58.57604445091746
 20
-33.78692994094169
 30
0.0
 11
59.30935709411747
 21
-33.77713520334168
 31
0.0
  0
LINE
  5
40
330
2
100
AcDbEntity
  8
0
100
AcDbLine
 10
59.22617357411747
 20
-33.77820963214169
 30
0.0
 11
59.93497114051746
 21
-33.76932946574168
 31
0.0
  0
LINE
  5
41
330
2
100
AcDbEntity
  8
0
  6
HIDDEN
100
AcDbLine
 10
65.03663725891747
 20
-32.78804352974168
 30
0.0
 11
50.80496625411746
 21
-32.78404905454169
 31
0.0
  0
LWPOLYLINE
  5
42
330
2
100
AcDbEntity
  8
0
100
AcDbPolyline
 90
       16
 70
     0
 43
0.0
 10
55.19686706051746
 20
-34.41679836174167
 10
55.41605005571748
 20
-34.41161158414168
 10
55.85437332131746
 20
-34.40046413454167
 10
56.51188384131748
 20
-34.38187070094168
 10
57.16963584451747
 20
-34.36113138094167
 10
57.82786672931746
 20
-34.33835969614168
 10
58.48681404451747
 20
-34.31366908814168
 10
59.14671543171746
 20
-34.28717297454168
 10
59.80780859971748
 20
-34.25898475054168
 10
60.47033141411748
 20
-34.22921777454168
 10
61.13452182211748
 20
-34.19798538414168
 10
61.80061791811747
 20
-34.16540086734168
 10
62.46885785731746
 20
-34.13157749614168
 10
63.13947990531747
 20
-34.09662850254167
 10
64.05928837891747
 20
-34.04730397294168
 10
64.98458775971747
 20
-33.99638037614168
  0
LWPOLYLINE
  5
43
330
2
100
AcDbEntity
  8
0
100
AcDbPolyline
 90
        6
 70
     0
 43
0.0
 10
64.97070616291748
 20
-33.74676604814168
 10
63.38514023971746
 20
-33.83324651214167
 10
61.63193715651747
 20
-33.92345993934168
 10
59.69318071011747
 20
-34.01374876014168
 10
57.55203663491747
 20
-34.09798777294168
 10
55.19110248611747
 20
-34.16686483054167
  0
LWPOLYLINE
  5
44
330
2
100
AcDbEntity
  8
0
100
AcDbPolyline
 90
       16
 70
     0
 43
0.0
 10
64.97070525251746
 20
-33.74676609934168
 10
64.04571129731746
 20
-33.79767289134167
 10
63.12629897411747
 20
-33.84697621134167
 10
62.45602543651748
 20
-33.88190704654167
 10
61.78818342371747
 20
-33.91571027854168
 10
61.12253478211747
 20
-33.94827290734168
 10
60.45884135011746
 20
-33.97948193774168
 10
59.79686497091748
 20
-34.00922436974168
 10
59.13636748611748
 20
-34.03738720654168
 10
58.47711073731748
 20
-34.06385744974168
 10
57.81885656451746
 20
-34.08852210094168
 10
57.16136681251746
 20
-34.11126816334167
 10
56.50440332131748
 20
-34.13198263694168
 10
55.84772792931747
 20
-34.15055246894167
 10
55.40998678371747
 20
-34.16168511854167
 10
55.19110248611747
 20
-34.16686483054167
  0
LWPOLYLINE
  5
45
330
2
100
AcDbEntity
  8
0
100
AcDbPolyline
 90
       16
 70
     0
 43
0.0
 10
64.97070525251746
 20
-33.74676609934168
 10
64.04571129731746
 20
-33.79767289134167
 10
63.12629897411747
 20
-33.84697621134167
 10
62.45602543651748
 20
-33.88190704654167
 10
61.78818342371747
 20
-33.91571027854168
 10
61.12253478211747
 20
-33.94827290734168
 10
60.45884135011746
 20
-33.97948193774168
 10
59.79686497091748
 20
-34.00922436974168
 10
59.13636748611748
 20
-34.03738720654168
 10
58.47711073731748
 20
-34.06385744974168
 10
57.81885656451746
 20
-34.08852210094168
 10
57.16136681251746
 20
-34.11126816334167
 10
56.50440332131748
 20
-34.13198263694168
 10
55.84772792931747
 20
-34.15055246894167
 10
55.40998678371747
 20
-34.16168511854167
 10
55.19110248611747
 20
-34.16686483054167
  0
LWPOLYLINE
  5
46
330
2
100
AcDbEntity
  8
0
100
AcDbPolyline
 90
       16
 70
     0
 43
0.0
 10
64.98458775971747
 20
-33.99638037614168
 10
64.05928837891747
 20
-34.04730397294168
 10
63.13947990531747
 20
-34.09662850254167
 10
62.46885785731746
 20
-34.13157749614168
 10
61.80061791811747
 20
-34.16540086734168
 10
61.13452182211748
 20
-34.19798538414168
 10
60.47033141411748
 20
-34.22921777454168
 10
59.80780859971748
 20
-34.25898475054168
 10
59.14671543171746
 20
-34.28717297454168
 10
58.48681404451747
 20
-34.31366908814168
 10
57.82786672931746
 20
-34.33835969614168
 10
57.16963584451747
 20
-34.36113138094167
 10
56.51188384131748
 20
-34.38187070094168
 10
55.85437332131746
 20
-34.40046413454167
 10
55.41605005571748
 20
-34.41161158414168
 10
55.19686706051746
 20
-34.41679836174167
  0
LWPOLYLINE
  5
47
330
2
100
AcDbEntity
  8
0
100
AcDbPolyline
 90
        9
 70
     0
 43
0.0
 10
60.33781539011747
 20
-32.30799946414168
 10
59.97076699651748
 20
-32.30251827214168
 10
59.58997418531746
 20
-32.29759794414167
 10
59.19988723171747
 20
-32.29326241454168
 10
58.79834900931746
 20
-32.28944371694167
 10
58.39057719171748
 20
-32.28614655054168
 10
57.98677049251748
 20
-32.28338999214168
 10
57.59449121731748
 20
-32.28114714094167
 10
57.22335510051746
 20
-32.27938528974168
  0
LWPOLYLINE
  5
48
330
2
100
AcDbEntity
  8
0
100
AcDbPolyline
 90
       10
 70
     0
 43
0.0
 10
55.19000624131746
 20
-36.03178139054168
 10
58.04573341891748
 20
-35.98046469614168
 10
60.73088681411746
 20
-35.82084703854167
 10
63.13720149251747
 20
-35.55965325774168
 10
65.27179803811748
 20
-35.20941500654168
 10
67.14884523491747
 20
-34.78894613934168
 10
68.80438412291747
 20
-34.31724303694168
 10
70.27606865091747
 20
-33.79418637934168
 10
71.47504476131746
 20
-33.20459631534168
 10
72.30741692931747
 20
-32.55576503854168
  0
ARC
  5
49
330
2
100
AcDbEntity
  8
0
100
AcDbCircle
 10
59.38500998531748
 20
-38.12323679534168
 30
0.0
 40
0.375
100
AcDbArc
 50
90.0
 51
175.0
  0
LINE
  5
4A
330
2
100
AcDbEntity
  8
0
100
AcDbLine
 10
40.87860248611747
 20
-40.32323679534168
 30
0.0
 11
69.50360248611747
 21
-40.32323679534168
 31
0.0
  0
LINE
  5
4B
330
2
100
AcDbEntity
  8
0
  6
HIDDEN
100
AcDbLine
 10
51.12791523971748
 20
-32.78389603374168
 30
0.0
 11
45.34556778211748
 21
-32.78804352974168
 31
0.0
  0
LINE
  5
4C
330
2
100
AcDbEntity
  8
0
100
AcDbLine
 10
46.67314846371747
 20
-32.42068295214169
 30
0.0
 11
46.49819602371747
 21
-32.43040774094168
 31
0.0
  0
LINE
  5
4D
330
2
100
AcDbEntity
  8
0
100
AcDbLine
 10
46.67694557731747
 20
-33.95672951214168
 30
0.0
 11
46.46445570691748
 21
-33.95797543054168
 31
0.0
  0
LWPOLYLINE
  5
4E
330
2
100
AcDbEntity
  8
0
100
AcDbPolyline
 90
       18
 70
     0
 43
0.0
 10
47.12301637411747
 20
-34.21823574734168
 10
46.98114819971746
 20
-34.22356073454167
 10
46.85012671811747
 20
-34.22765576814168
 10
46.72926673571746
 20
-34.23040451054168
 10
46.61760124611745
 20
-34.23184036174168
 10
46.51439251491746
 20
-34.23207929134167
 10
46.41865242691747
 20
-34.23125838414168
 10
46.32963904611748
 20
-34.22951209454168
 10
46.24662375651746
 20
-34.22696470734168
 10
46.16916493571747
 20
-34.22373707854168
 10
46.09687537891747
 20
-34.21994227214168
 10
46.02967177411747
 20
-34.21570162894168
 10
45.96763965571748
 20
-34.21114728334168
 10
45.91110459331747
 20
-34.20643427374168
 10
45.86058996771746
 20
-34.20174484174168
 10
45.81698505891748
 20
-34.19731090094168
 10
45.78135583811746
 20
-34.19340285454168
 10
45.75479449091747
 20
-34.19030930094168
  0
LINE
  5
4F
330
2
100
AcDbEntity
  8
0
100
AcDbLine
 10
46.41965026211747
 20
-34.69823679534168
 30
0.0
 11
48.96255466051747
 21
-34.69823679534168
 31
0.0
  0
LINE
  5
50
330
2
100
AcDbEntity
  8
0
100
AcDbLine
 10
46.41965026211747
 20
-34.69823679534168
 30
0.0
 11
48.96255466051747
 21
-34.69823679534168
 31
0.0
  0
LINE
  5
51
330
2
100
AcDbEntity
  8
0
100
AcDbLine
 10
48.96254909571746
 20
-34.94823679534168
 30
0.0
 11
46.41965587651748
 21
-34.94823679534168
 31
0.0
  0
LINE
  5
52
330
2
100
AcDbEntity
  8
0
100
AcDbLine
 10
48.96254909571746
 20
-34.94823679534168
 30
0.0
 11
46.41965587651748
 21
-34.94823679534168
 31
0.0
  0
LWPOLYLINE
  5
53
330
2
100
AcDbEntity
  8
0
100
AcDbPolyline
 90
       26
 70
     0
 43
0.0
 10
40.92156041571747
 20
-33.74529545774167
 10
40.97525145411748
 20
-33.81742723534168
 10
41.05031337251747
 20
-33.89122637134168
 10
41.14662329571745
 20
-33.96646684014168
 10
41.26392603651746
 20
-34.04284471374168
 10
41.40198506851746
 20
-34.12009564334168
 10
41.56037142851746
 20
-34.19786379054168
 10
41.73873059171748
 20
-34.27585200014168
 10
41.93645520931747
 20
-34.35366555054168
 10
42.15306894211747
 20
-34.43098197454168
 10
42.38779684771748
 20
-34.50738514254167
 10
42.64004378851746
 20
-34.58253853454167
 10
42.90889295171746
 20
-34.65602422734168
 10
43.19364123491746
 20
-34.72750509294167
 10
43.49326822531748
 20
-34.79658100654168
 10
43.80698152611748
 20
-34.86292829934168
 10
44.13370223171748
 20
-34.92618164974167
 10
44.47257274051747
 20
-34.98604368494167
 10
44.82250034051747
 20
-35.04219634254168
 10
45.18258815491748
 20
-35.09437869934168
 10
45.55176675491748
 20
-35.14232696174168
 10
45.92912379011747
 20
-35.18582336814167
 10
46.31363732771745
 20
-35.22466029454168
 10
46.70439850531747
 20
-35.25866652014168
 10
47.10044234211747
 20
-35.28768878094167
 10
47.50087360771746
 20
-35.31160296014167
  0
LWPOLYLINE
  5
54
330
2
100
AcDbEntity
  8
0
100
AcDbPolyline
 90
       23
 70
     0
 43
0.0
 10
41.59292956291747
 20
-33.81742723534168
 10
41.66230497091746
 20
-33.89122637134168
 10
41.75131868931745
 20
-33.96646684014168
 10
41.85973485891747
 20
-34.04284471374168
 10
41.98733487331748
 20
-34.12009564334168
 10
42.13372226691745
 20
-34.19786379054168
 10
42.29856937091748
 20
-34.27585200014168
 10
42.48131485091747
 20
-34.35366555054168
 10
42.68151845251748
 20
-34.43098197454168
 10
42.89846394051747
 20
-34.50738514254167
 10
43.13160126691747
 20
-34.58253853454167
 10
43.38008306851747
 20
-34.65602422734168
 10
43.64325951171747
 20
-34.72750509294167
 10
43.92018748771747
 20
-34.79658100654168
 10
44.21013462851746
 20
-34.86292829934168
 10
44.51210376611746
 20
-34.92618164974167
 10
44.82530226691747
 20
-34.98604368494167
 10
45.14872019971747
 20
-35.04219634254168
 10
45.48152863491748
 20
-35.09437869934168
 10
45.82273915811746
 20
-35.14232696174168
 10
46.17150854051746
 20
-35.18582336814167
 10
46.52689226371745
 20
-35.22466029454168
 10
46.88805032291748
 20
-35.25866652014168
  0
LWPOLYLINE
  5
55
330
2
100
AcDbEntity
  8
0
100
AcDbPolyline
 90
       10
 70
     0
 43
0.0
 10
38.07478067171746
 20
-32.55575745454168
 10
38.90848393251747
 20
-33.20540355214168
 10
40.10498307331746
 20
-33.79371602254168
 10
41.57434299651746
 20
-34.31614047694167
 10
43.22996895971747
 20
-34.78808081614168
 10
45.10802321891747
 20
-35.20895189614167
 10
47.24282373251748
 20
-35.55935688494168
 10
49.64875608131745
 20
-35.82063351694167
 10
52.33367355331748
 20
-35.98035953454167
 10
55.19000623811746
 20
-36.03178138734168
  0
LINE
  5
56
330
2
100
AcDbEntity
  8
0
  6
HIDDEN
100
AcDbLine
 10
41.50360248611747
 20
-40.32323679534168
 30
0.0
 11
41.50360248611747
 21
-32.57323764654168
 31
0.0
  0
LINE
  5
57
330
2
100
AcDbEntity
  8
0
100
AcDbLine
 10
42.70397118211747
 20
-37.72504741614168
 30
0.0
 11
42.51994322211746
 21
-35.79066184974168
 31
0.0
  0
LINE
  5
58
330
2
100
AcDbEntity
  8
0
100
AcDbLine
 10
40.87860248611747
 20
-40.32323679534168
 30
0.0
 11
40.87860248611747
 21
-34.06877300174169
 31
0.0
  0
LINE
  5
59
330
2
100
AcDbEntity
  8
0
100
AcDbLine
 10
42.88678714051747
 20
-39.63860360174168
 30
0.0
 11
42.70398450051746
 21
-37.72518741614169
 31
0.0
  0
LINE
  5
5A
330
2
100
AcDbEntity
  8
0
100
AcDbLine
 10
43.48995417251745
 20
-40.29239129294168
 30
0.0
 11
43.37756317091748
 21
-40.25992116814168
 31
0.0
  0
LWPOLYLINE
  5
5B
330
2
100
AcDbEntity
  8
0
100
AcDbPolyline
 90
        5
 70
     0
 43
0.0
 10
42.99602108931748
 20
-39.95176084814168
 10
43.10117185891747
 20
-40.08120301934168
 10
43.23108746051746
 20
-40.18494883694168
 10
43.37962058051746
 20
-40.26073284014167
 10
43.54186773571746
 20
-40.30728705614168
  0
LINE
  5
5C
330
2
100
AcDbEntity
  8
0
100
AcDbLine
 10
42.99602108931748
 20
-39.95176084814168
 30
0.0
 11
42.92229416771746
 21
-39.80057055214168
 31
0.0
  0
LINE
  5
5D
330
2
100
AcDbEntity
  8
0
100
AcDbLine
 10
43.37756317091748
 20
-40.25992116814168
 30
0.0
 11
43.22857591171748
 21
-40.18332922414169
 31
0.0
  0
LWPOLYLINE
  5
5E
330
2
100
AcDbEntity
  8
0
100
AcDbPolyline
 90
        3
 70
     0
 43
0.0
 10
43.09904986691748
 20
-40.07910036174168
 10
42.99484376131746
 20
-39.94991977934168
 10
42.94533716771747
 20
-39.84800643694168
  0
LINE
  5
5F
330
2
100
AcDbEntity
  8
0
100
AcDbLine
 10
43.22857591171748
 20
-40.18332922414169
 30
0.0
 11
43.09904986691748
 21
-40.07910036174169
 31
0.0
  0
LINE
  5
60
330
2
100
AcDbEntity
  8
0
100
AcDbLine
 10
42.88678714051747
 20
-39.63860360174168
 30
0.0
 11
42.92261849571747
 21
-39.80149933454169
 31
0.0
  0
LINE
  5
61
330
2
100
AcDbEntity
  8
0
100
AcDbLine
 10
43.71389275331748
 20
-40.32323679534168
 30
0.0
 11
43.54084876771747
 21
-40.30709490574168
 31
0.0
  0
LINE
  5
62
330
2
100
AcDbEntity
  8
0
100
AcDbLine
 10
42.30656319651745
 20
-33.74100003534168
 30
0.0
 11
42.33462549891746
 21
-33.83498278414168
 31
0.0
  0
LWPOLYLINE
  5
63
330
2
100
AcDbEntity
  8
0
100
AcDbPolyline
 90
        4
 70
     0
 43
0.0
 10
41.59292994531748
 20
-33.81742770574168
 10
41.54330633251746
 20
-33.74529600494168
 10
41.51352523011746
 20
-33.67507350894168
 10
41.50360248611747
 20
-33.60695327374168
  0
LINE
  5
64
330
2
100
AcDbEntity
  8
0
100
AcDbLine
 10
40.87860248611747
 20
-34.06877300174169
 30
0.0
 11
40.87860248611747
 21
-33.60695327374168
 31
0.0
  0
ARC
  5
65
330
2
100
AcDbEntity
  8
0
100
AcDbCircle
 10
45.50087363171747
 20
-33.13897772654168
 30
0.0
 40
1.250000012799999
100
AcDbArc
 50
184.9595975563999
 51
259.8730578074
  0
ARC
  5
66
330
2
100
AcDbEntity
  8
0
100
AcDbCircle
 10
45.50087363171747
 20
-33.13897772654168
 30
0.0
 40
1.000000009599999
100
AcDbArc
 50
184.9596930726
 51
259.8729743582999
  0
ARC
  5
67
330
2
100
AcDbEntity
  8
0
100
AcDbCircle
 10
45.50087363171747
 20
-33.13897772654168
 30
0.0
 40
1.000000009599999
100
AcDbArc
 50
184.9596930726
 51
259.8729743582999
  0
ARC
  5
68
330
2
100
AcDbEntity
  8
0
100
AcDbCircle
 10
45.50087363171747
 20
-33.13897772654168
 30
0.0
 40
1.250000012799999
100
AcDbArc
 50
184.9595975563999
 51
259.8730578074
  0
LWPOLYLINE
  5
69
330
2
100
AcDbEntity
  8
0
100
AcDbPolyline
 90
       15
 70
     0
 43
0.0
 10
45.31104621571748
 20
-34.12079638734168
 10
45.22068762051747
 20
-34.09892468174168
 10
45.13261011171747
 20
-34.06870046094168
 10
45.04761738211747
 20
-34.03035932334168
 10
44.96649029891748
 20
-33.98422135854168
 10
44.88997591651747
 20
-33.93068869614168
 10
44.81877501091747
 20
-33.87023941134168
 10
44.75353156451745
 20
-33.80341875694168
 10
44.69481467011746
 20
-33.73081455694168
 10
44.64313084291745
 20
-33.65305844814168
 10
44.59892639491747
 20
-33.57082564014167
 10
44.56258378371745
 20
-33.48482930734167
 10
44.53441846531745
 20
-33.39581470734168
 10
44.51467625731746
 20
-33.30455302574168
 10
44.50471375811747
 20
-33.22653103214168
  0
LWPOLYLINE
  5
6A
330
2
100
AcDbEntity
  8
0
100
AcDbPolyline
 90
       21
 70
     0
 43
0.0
 10
44.24977723971747
 20
-33.53698020814167
 10
44.26199689091745
 20
-33.57587058574168
 10
44.27643869251747
 20
-33.61251429294168
 10
44.29287932771745
 20
-33.64731507694168
 10
44.31109199971746
 20
-33.68019193934168
 10
44.33084965411746
 20
-33.71108401614167
 10
44.35193030531746
 20
-33.73995523694168
 10
44.37411949251748
 20
-33.76679212654168
 10
44.39721190051748
 20
-33.79160115054168
 10
44.42101104131748
 20
-33.81440488974168
 10
44.44530354851747
 20
-33.83521898414167
 10
44.46985953411746
 20
-33.85406161294167
 10
44.49445780291748
 20
-33.87097592014168
 10
44.51891167331746
 20
-33.88604062094167
 10
44.54307483651746
 20
-33.89936176654168
 10
44.56683367331746
 20
-33.91105900494167
 10
44.59009661891747
 20
-33.92125532014168
 10
44.61266972611747
 20
-33.93002945454168
 10
44.63406866371747
 20
-33.93738080334168
 10
44.65382554531745
 20
-33.94337113774168
 10
44.67362943971747
 20
-33.94848948814168
  0
LWPOLYLINE
  5
6B
330
2
100
AcDbEntity
  8
0
100
AcDbPolyline
 90
       19
 70
     0
 43
0.0
 10
44.26205940611746
 20
-33.57552043214168
 10
44.27658209731745
 20
-33.61231421614167
 10
44.29311623171748
 20
-33.64725183054167
 10
44.31143294531747
 20
-33.68025133614167
 10
44.33130305891748
 20
-33.71125127054168
 10
44.35250252131746
 20
-33.74021532494168
 10
44.37481488131746
 20
-33.76713007534168
 10
44.39803293891748
 20
-33.79200227854168
 10
44.42195819491746
 20
-33.81485479214168
 10
44.44637409251746
 20
-33.83570282094167
 10
44.47104855651747
 20
-33.85456544974168
 10
44.49575871331745
 20
-33.87148720174168
 10
44.52031815971747
 20
-33.88654923854168
 10
44.54457962691748
 20
-33.89985888334168
 10
44.56842943971747
 20
-33.91153737454168
 10
44.59177472131748
 20
-33.92170854574168
 10
44.61440528771746
 20
-33.93044696654168
 10
44.63582839651746
 20
-33.93775376334168
 10
44.65558806531745
 20
-33.94369877934168
  0
LINE
  5
6C
330
2
100
AcDbEntity
  8
0
100
AcDbLine
 10
42.33462624131746
 20
-33.83499243534169
 30
0.0
 11
42.51992995971747
 21
-35.79052189294168
 31
0.0
  0
ARC
  5
6D
330
2
100
AcDbEntity
  8
0
100
AcDbCircle
 10
46.41965587811748
 20
-34.44823679534168
 30
0.0
 40
0.25
100
AcDbArc
 50
225.0000000272
 51
269.9983131416
  0
ARC
  5
6E
330
2
100
AcDbEntity
  8
0
100
AcDbCircle
 10
46.41965587811748
 20
-34.44823679534168
 30
0.0
 40
0.25
100
AcDbArc
 50
225.0000000272
 51
269.9983131416
  0
LINE
  5
6F
330
2
100
AcDbEntity
  8
0
100
AcDbLine
 10
46.46547861571747
 20
-33.95797024654168
 30
0.0
 11
46.26067521571747
 21
-33.95883135694168
 31
0.0
  0
ARC
  5
70
330
2
100
AcDbEntity
  8
0
100
AcDbCircle
 10
45.69972149251748
 20
-34.43540917934169
 30
0.0
 40
0.25
100
AcDbArc
 50
45.0000001442
 51
82.3932371509
  0
ARC
  5
71
330
2
100
AcDbEntity
  8
0
100
AcDbCircle
 10
45.58225769891746
 20
-34.67149878894168
 30
0.0
 40
0.25
100
AcDbArc
 50
45.0000000002
 51
81.81433641099999
  0
ARC
  5
72
330
2
100
AcDbEntity
  8
0
100
AcDbCircle
 10
45.69972049891745
 20
-34.43540819694169
 30
0.0
 40
0.25
100
AcDbArc
 50
45.0
 51
82.3927328231
  0
LINE
  5
73
330
2
100
AcDbEntity
  8
0
100
AcDbLine
 10
44.94627505731748
 20
-33.95810558254168
 30
0.0
 11
45.14817314371746
 21
-33.95667438094168
 31
0.0
  0
LINE
  5
74
330
2
100
AcDbEntity
  8
0
100
AcDbLine
 10
44.95877973571746
 20
-33.95797834574168
 30
0.0
 11
44.89099984291747
 21
-33.95890146414169
 31
0.0
  0
LINE
  5
75
330
2
100
AcDbEntity
  8
0
100
AcDbLine
 10
44.89099984291747
 20
-33.95890146414169
 30
0.0
 11
44.85532492131747
 21
-33.95958230894168
 31
0.0
  0
LINE
  5
76
330
2
100
AcDbEntity
  8
0
100
AcDbLine
 10
44.83998531171747
 20
-33.95992527054168
 30
0.0
 11
44.86336279811746
 21
-33.95938522574168
 31
0.0
  0
LINE
  5
77
330
2
100
AcDbEntity
  8
0
100
AcDbLine
 10
44.84025365251747
 20
-33.95994766894169
 30
0.0
 11
44.82067685731746
 21
-33.96051424494168
 31
0.0
  0
LINE
  5
78
330
2
100
AcDbEntity
  8
0
100
AcDbLine
 10
44.82700309891746
 20
-33.96033445134168
 30
0.0
 11
44.81511284931747
 21
-33.96072522734168
 31
0.0
  0
LINE
  5
79
330
2
100
AcDbEntity
  8
0
100
AcDbLine
 10
44.80998759971746
 20
-33.96094485294169
 30
0.0
 11
44.81549635331745
 21
-33.96074976014169
 31
0.0
  0
LINE
  5
7A
330
2
100
AcDbEntity
  8
0
100
AcDbLine
 10
44.80530499971746
 20
-33.96117401134169
 30
0.0
 11
44.81040079971748
 21
-33.96097002414169
 31
0.0
  0
LINE
  5
7B
330
2
100
AcDbEntity
  8
0
100
AcDbLine
 10
44.80106963331746
 20
-33.96141369294169
 30
0.0
 11
44.80574827011747
 21
-33.96119986574168
 31
0.0
  0
LINE
  5
7C
330
2
100
AcDbEntity
  8
0
100
AcDbLine
 10
44.79728722851746
 20
-33.96166498094168
 30
0.0
 11
44.80154333731746
 21
-33.96144027694168
 31
0.0
  0
LINE
  5
7D
330
2
100
AcDbEntity
  8
0
100
AcDbLine
 10
44.79396459011747
 20
-33.96192907214168
 30
0.0
 11
44.79779170691748
 21
-33.96169234734168
 31
0.0
  0
LINE
  5
7E
330
2
100
AcDbEntity
  8
0
100
AcDbLine
 10
44.79110967651746
 20
-33.96220727054169
 30
0.0
 11
44.79450016771747
 21
-33.96195727214168
 31
0.0
  0
LINE
  5
7F
330
2
100
AcDbEntity
  8
0
100
AcDbLine
 10
44.78873163171747
 20
-33.96250100974168
 30
0.0
 11
44.79167665571748
 21
-33.96223635694168
 31
0.0
  0
LINE
  5
80
330
2
100
AcDbEntity
  8
0
100
AcDbLine
 10
44.79866658691747
 20
-33.96733464334168
 30
0.0
 11
44.79401788291747
 21
-33.96670500494169
 31
0.0
  0
LINE
  5
81
330
2
100
AcDbEntity
  8
0
100
AcDbLine
 10
45.60614851651746
 20
-34.16965405294169
 30
0.0
 11
45.53534895811748
 21
-34.15878465614168
 31
0.0
  0
LINE
  5
82
330
2
100
AcDbEntity
  8
0
100
AcDbLine
 10
44.72904753091748
 20
-33.95982664334168
 30
0.0
 11
44.74146052931746
 21
-33.96162395374168
 31
0.0
  0
LWPOLYLINE
  5
83
330
2
100
AcDbEntity
  8
0
100
AcDbPolyline
 90
        3
 70
     0
 43
0.0
 10
45.60614851651746
 20
-34.16965405294168
 10
45.63817520611746
 20
-34.17438307374168
 10
45.64149677411748
 20
-34.17486499694168
  0
LWPOLYLINE
  5
84
330
2
100
AcDbEntity
  8
0
100
AcDbPolyline
 90
        3
 70
     0
 43
0.0
 10
45.65876063491749
 20
-34.17735530574168
 10
45.58422420931748
 20
-34.16634855214168
 10
45.54689430851746
 20
-34.16059522094168
  0
LINE
  5
85
330
2
100
AcDbEntity
  8
0
100
AcDbLine
 10
45.67675667011747
 20
-34.17991192654168
 30
0.0
 11
45.60614851651746
 21
-34.16965405294169
 31
0.0
  0
LINE
  5
86
330
2
100
AcDbEntity
  8
0
100
AcDbLine
 10
44.80293666691747
 20
-33.96795199374168
 30
0.0
 11
44.79768202531746
 21
-33.96728647534168
 31
0.0
  0
LINE
  5
87
330
2
100
AcDbEntity
  8
0
100
AcDbLine
 10
44.73992492291748
 20
-33.96149000014168
 30
0.0
 11
44.75150608131747
 21
-33.96303161134168
 31
0.0
  0
LINE
  5
88
330
2
100
AcDbEntity
  8
0
100
AcDbLine
 10
45.71188769731747
 20
-34.18478370414169
 30
0.0
 11
45.73281728931746
 21
-34.18760952494168
 31
0.0
  0
LINE
  5
89
330
2
100
AcDbEntity
  8
0
100
AcDbLine
 10
44.76640160291748
 20
-33.96502996814168
 30
0.0
 11
44.82002348451746
 21
-33.97231512494168
 31
0.0
  0
LWPOLYLINE
  5
8A
330
2
100
AcDbEntity
  8
0
100
AcDbPolyline
 90
        3
 70
     0
 43
0.0
 10
45.73281602531747
 20
-34.18760850734168
 10
45.69587219971748
 20
-34.18258262574168
 10
45.65876063491749
 20
-34.17735530574168
  0
LINE
  5
8B
330
2
100
AcDbEntity
  8
0
100
AcDbLine
 10
44.80776019491748
 20
-33.96860368174168
 30
0.0
 11
44.80190608611747
 21
-33.96790064014168
 31
0.0
  0
LINE
  5
8C
330
2
100
AcDbEntity
  8
0
100
AcDbLine
 10
44.74999268931748
 20
-33.96291014414169
 30
0.0
 11
44.76121943491747
 21
-33.96430407214168
 31
0.0
  0
LINE
  5
8D
330
2
100
AcDbEntity
  8
0
100
AcDbLine
 10
45.75479449091747
 20
-34.19030930094168
 30
0.0
 11
45.73281483811746
 21
-34.18760920014168
 31
0.0
  0
LINE
  5
8E
330
2
100
AcDbEntity
  8
0
100
AcDbLine
 10
44.75969831491747
 20
-33.96418900334168
 30
0.0
 11
44.76775488451747
 21
-33.96512014414168
 31
0.0
  0
LWPOLYLINE
  5
8F
330
2
100
AcDbEntity
  8
0
100
AcDbPolyline
 90
        5
 70
     0
 43
0.0
 10
45.81610248611747
 20
-34.19823679534168
 10
45.78160111491746
 20
-34.19395727374168
 10
45.74684934851745
 20
-34.18946919854167
 10
45.71188769731747
 20
-34.18478370414168
 10
45.67675667011747
 20
-34.17991192654167
  0
LINE
  5
90
330
2
100
AcDbEntity
  8
0
100
AcDbLine
 10
45.33761019171746
 20
-33.95708294734169
 30
0.0
 11
45.31459012451747
 21
-33.95693275694169
 31
0.0
  0
LINE
  5
91
330
2
100
AcDbEntity
  8
0
100
AcDbLine
 10
45.26998645891746
 20
-33.95672603694169
 30
0.0
 11
45.51099475491747
 21
-33.95818667214168
 31
0.0
  0
LINE
  5
92
330
2
100
AcDbEntity
  8
0
100
AcDbLine
 10
45.68956815011747
 20
-33.95896719694168
 30
0.0
 11
45.51052859331747
 21
-33.95818390254168
 31
0.0
  0
LINE
  5
93
330
2
100
AcDbEntity
  8
0
100
AcDbLine
 10
45.21462023971747
 20
-34.09775820334168
 30
0.0
 11
45.26854384131747
 21
-34.11168941614168
 31
0.0
  0
LWPOLYLINE
  5
94
330
2
100
AcDbEntity
  8
0
100
AcDbPolyline
 90
        9
 70
     0
 43
0.0
 10
44.78926342531747
 20
-33.96567416654168
 10
44.78647920931746
 20
-33.96514559854168
 10
44.78515194851746
 20
-33.96468938894168
 10
44.78440375491746
 20
-33.96426355374168
 10
44.78421522691746
 20
-33.96386523534168
 10
44.78456899171746
 20
-33.96349196014168
 10
44.78544901251746
 20
-33.96314152814167
 10
44.78684084611745
 20
-33.96281185934167
 10
44.78933030051746
 20
-33.96253104014167
  0
LINE
  5
95
330
2
100
AcDbEntity
  8
0
100
AcDbLine
 10
44.67186614211747
 20
-33.94820130574168
 30
0.0
 11
44.69010427331747
 21
-33.95235594254168
 31
0.0
  0
LINE
  5
96
330
2
100
AcDbEntity
  8
0
100
AcDbLine
 10
45.26622233571745
 20
-34.11112889454168
 30
0.0
 11
45.31267722051746
 21
-34.12111034734168
 31
0.0
  0
LINE
  5
97
330
2
100
AcDbEntity
  8
0
100
AcDbLine
 10
44.68834548771747
 20
-33.95210278254168
 30
0.0
 11
44.70515096611745
 21
-33.95548437614168
 31
0.0
  0
LINE
  5
98
330
2
100
AcDbEntity
  8
0
100
AcDbLine
 10
44.79182065091745
 20
-33.96619697774168
 30
0.0
 11
44.78840278051746
 21
-33.96563430734168
 31
0.0
  0
LWPOLYLINE
  5
99
330
2
100
AcDbEntity
  8
0
100
AcDbPolyline
 90
       13
 70
     0
 43
0.0
 10
44.86596978051747
 20
-33.98014456334168
 10
44.90481315491746
 20
-33.98800199694167
 10
44.93432926691747
 20
-33.99493988334167
 10
44.95174776771747
 20
-33.99967461454168
 10
44.95974543171747
 20
-34.00220483214168
 10
44.96422182531747
 20
-34.00383109454168
 10
44.96984761731747
 20
-34.00612048814168
 10
44.98278046371746
 20
-34.01170921134168
 10
45.00887642211748
 20
-34.02315837454167
 10
45.05010894051747
 20
-34.04063380654168
 10
45.10210836131747
 20
-34.06097836334168
 10
45.15838063491748
 20
-34.08064437454167
 10
45.21689709251748
 20
-34.09844793614168
  0
LWPOLYLINE
  5
9A
330
2
100
AcDbEntity
  8
0
100
AcDbPolyline
 90
       12
 70
     0
 43
0.0
 10
44.86402719331747
 20
-33.97998901934168
 10
44.90289926371747
 20
-33.98784774574168
 10
44.93260003651747
 20
-33.99482004494167
 10
44.95031017571747
 20
-33.99962664014168
 10
44.95868750211747
 20
-34.00227220174168
 10
44.96360311651748
 20
-34.00405377294168
 10
44.96969459171748
 20
-34.00652279534168
 10
44.98317078531747
 20
-34.01231991534167
 10
45.00981459491746
 20
-34.02394675374168
 10
45.05154577091746
 20
-34.04151706574168
 10
45.10396712291748
 20
-34.06186733454168
 10
45.16049989411746
 20
-34.08145155054167
  0
LINE
  5
9B
330
2
100
AcDbEntity
  8
0
100
AcDbLine
 10
44.70342844291747
 20
-33.95526721454168
 30
0.0
 11
44.71862470371746
 21
-33.95797984334169
 31
0.0
  0
LINE
  5
9C
330
2
100
AcDbEntity
  8
0
100
AcDbLine
 10
45.32503840931747
 20
-34.12339853294168
 30
0.0
 11
45.31267722051746
 21
-34.12111034734168
 31
0.0
  0
LINE
  5
9D
330
2
100
AcDbEntity
  8
0
100
AcDbLine
 10
44.79495883491748
 20
-33.96675019694169
 30
0.0
 11
44.79092123811748
 21
-33.96615460174168
 31
0.0
  0
LWPOLYLINE
  5
9E
330
2
100
AcDbEntity
  8
0
100
AcDbPolyline
 90
        3
 70
     0
 43
0.0
 10
45.28108659491747
 20
-34.36950334574167
 10
45.30676556291746
 20
-34.37405915214167
 10
45.35852331171748
 20
-34.38305295534168
  0
LINE
  5
9F
330
2
100
AcDbEntity
  8
0
100
AcDbLine
 10
45.33258276771746
 20
-34.37857708494169
 30
0.0
 11
45.28108659491747
 21
-34.36950334574168
 31
0.0
  0
LINE
  5
A0
330
2
100
AcDbEntity
  8
0
100
AcDbLine
 10
45.39447188611745
 20
-34.13556758894169
 30
0.0
 11
45.32504250691746
 21
-34.12339807214169
 31
0.0
  0
LINE
  5
A1
330
2
100
AcDbEntity
  8
0
100
AcDbLine
 10
45.39827131651748
 20
-34.13622005294168
 30
0.0
 11
45.32504250691746
 21
-34.12339807214169
 31
0.0
  0
LINE
  5
A2
330
2
100
AcDbEntity
  8
0
100
AcDbLine
 10
45.40096251491746
 20
-34.39023586254168
 30
0.0
 11
45.33258276771746
 21
-34.37857708494169
 31
0.0
  0
LINE
  5
A3
330
2
100
AcDbEntity
  8
0
100
AcDbLine
 10
44.81822207971745
 20
-33.97217936974168
 30
0.0
 11
44.86596978051747
 21
-33.98014456334168
 31
0.0
  0
LINE
  5
A4
330
2
100
AcDbEntity
  8
0
100
AcDbLine
 10
45.46468205731748
 20
-34.14739280974169
 30
0.0
 11
45.39447188611745
 21
-34.13556758894169
 31
0.0
  0
LINE
  5
A5
330
2
100
AcDbEntity
  8
0
100
AcDbLine
 10
45.47234852931746
 20
-34.14865390414169
 30
0.0
 11
45.39827131651748
 21
-34.13622005294168
 31
0.0
  0
LINE
  5
A6
330
2
100
AcDbEntity
  8
0
100
AcDbLine
 10
45.35852331171748
 20
-34.38305295534169
 30
0.0
 11
45.42938647011746
 21
-34.39494777934168
 31
0.0
  0
LINE
  5
A7
330
2
100
AcDbEntity
  8
0
100
AcDbLine
 10
45.46468205731748
 20
-34.14739280974169
 30
0.0
 11
45.46968054691745
 21
-34.14821726414168
 31
0.0
  0
LINE
  5
A8
330
2
100
AcDbEntity
  8
0
100
AcDbLine
 10
44.71696961731746
 20
-33.95779755054168
 30
0.0
 11
44.73063461731746
 21
-33.95998082094168
 31
0.0
  0
LINE
  5
A9
330
2
100
AcDbEntity
  8
0
100
AcDbLine
 10
45.53534895811748
 20
-34.15878465614168
 30
0.0
 11
45.46468205731748
 21
-34.14739280974169
 31
0.0
  0
LINE
  5
AA
330
2
100
AcDbEntity
  8
0
100
AcDbLine
 10
45.42938647011746
 20
-34.39494777934168
 30
0.0
 11
45.50078123011746
 21
-34.40642134254168
 31
0.0
  0
LINE
  5
AB
330
2
100
AcDbEntity
  8
0
100
AcDbLine
 10
45.54689430851746
 20
-34.16059522094168
 30
0.0
 11
45.47234852931746
 21
-34.14865390414169
 31
0.0
  0
LWPOLYLINE
  5
AC
330
2
100
AcDbEntity
  8
0
100
AcDbPolyline
 90
        3
 70
     0
 43
0.0
 10
45.53534895811748
 20
-34.15878465614167
 10
45.55065256931746
 20
-34.16118302254167
 10
45.57075240931746
 20
-34.16429022734168
  0
LINE
  5
AD
330
2
100
AcDbEntity
  8
0
100
AcDbLine
 10
45.50078123011746
 20
-34.40642134254168
 30
0.0
 11
45.57244152771747
 21
-34.41739260814169
 31
0.0
  0
LINE
  5
AE
330
2
100
AcDbEntity
  8
0
100
AcDbLine
 10
45.57244152771747
 20
-34.41739260814169
 30
0.0
 11
45.61785301571745
 21
-34.42404581614168
 31
0.0
  0
LWPOLYLINE
  5
AF
330
2
100
AcDbEntity
  8
0
100
AcDbPolyline
 90
        6
 70
     0
 43
0.0
 10
45.63620503331748
 20
-34.42666545934168
 10
45.57244152771747
 20
-34.41739260814168
 10
45.52942838371746
 20
-34.41087466254168
 10
45.48647252131746
 20
-34.40416422094168
 10
45.44363140771747
 20
-34.39727878574167
 10
45.40096251491746
 20
-34.39023586254168
  0
LINE
  5
B0
330
2
100
AcDbEntity
  8
0
100
AcDbLine
 10
45.69972106211747
 20
-34.43540876174168
 30
0.0
 11
45.63620503331748
 21
-34.42666545934168
 31
0.0
  0
LINE
  5
B1
330
2
100
AcDbEntity
  8
0
100
AcDbLine
 10
46.06610248611747
 20
-34.80179018574169
 30
0.0
 11
45.75903439331748
 21
-34.49472209294168
 31
0.0
  0
LINE
  5
B2
330
2
100
AcDbEntity
  8
0
100
AcDbLine
 10
46.06610248611747
 20
-34.80179018574169
 30
0.0
 11
45.69972106211747
 21
-34.43540876174168
 31
0.0
  0
LINE
  5
B3
330
2
100
AcDbEntity
  8
0
100
AcDbLine
 10
44.66698915651747
 20
-34.05216013934168
 30
0.0
 11
44.84263864771747
 21
-33.87651064814169
 31
0.0
  0
LWPOLYLINE
  5
B4
330
2
100
AcDbEntity
  8
0
100
AcDbPolyline
 90
        7
 70
     0
 43
0.0
 10
44.78747147011747
 20
-33.96284288814168
 10
44.78611183491747
 20
-33.96317361454168
 10
44.78526423171746
 20
-33.96352516174168
 10
44.78494307491746
 20
-33.96389960814168
 10
44.78516435971747
 20
-33.96429914574167
 10
44.78594543811746
 20
-33.96472626734168
 10
44.78730544931747
 20
-33.96518374574167
  0
LINE
  5
B5
330
2
100
AcDbEntity
  8
0
100
AcDbLine
 10
45.26998645891746
 20
-33.95672603694169
 30
0.0
 11
45.24841760131747
 21
-33.95666452014168
 31
0.0
  0
LINE
  5
B6
330
2
100
AcDbEntity
  8
0
100
AcDbLine
 10
45.22734445891745
 20
-33.95662774574168
 30
0.0
 11
45.26999158691748
 21
-33.95672157294169
 31
0.0
  0
LINE
  5
B7
330
2
100
AcDbEntity
  8
0
100
AcDbLine
 10
45.87419855811748
 20
-33.95933781614168
 30
0.0
 11
45.68883248291746
 21
-33.95896489934168
 31
0.0
  0
LINE
  5
B8
330
2
100
AcDbEntity
  8
0
100
AcDbLine
 10
45.22734445891745
 20
-33.95662774574168
 30
0.0
 11
45.12952161251746
 21
-33.95674174254168
 31
0.0
  0
LINE
  5
B9
330
2
100
AcDbEntity
  8
0
100
AcDbLine
 10
46.06479917891746
 20
-33.95928790894169
 30
0.0
 11
45.87313319011747
 21
-33.95933688814168
 31
0.0
  0
ARC
  5
BA
330
2
100
AcDbEntity
  8
0
100
AcDbCircle
 10
46.41965587651748
 20
-34.44823679534168
 30
0.0
 40
0.5
100
AcDbArc
 50
225.0
 51
270.0000000005
  0
ARC
  5
BB
330
2
100
AcDbEntity
  8
0
100
AcDbCircle
 10
46.41965587651748
 20
-34.44823679534168
 30
0.0
 40
0.5
100
AcDbArc
 50
225.0
 51
270.0000000005
  0
LINE
  5
BC
330
2
100
AcDbEntity
  8
0
100
AcDbLine
 10
46.26169871971746
 20
-33.95882798414168
 30
0.0
 11
46.06377567171747
 21
-33.95928926574169
 31
0.0
  0
LINE
  5
BD
330
2
100
AcDbEntity
  8
0
100
AcDbLine
 10
46.24287918211746
 20
-34.62501348974169
 30
0.0
 11
45.87649719331747
 21
-34.25863150254169
 31
0.0
  0
LINE
  5
BE
330
2
100
AcDbEntity
  8
0
100
AcDbLine
 10
46.24287918211746
 20
-34.62501348974169
 30
0.0
 11
45.81610248611747
 21
-34.19823679534168
 31
0.0
  0
LINE
  5
BF
330
2
100
AcDbEntity
  8
0
100
AcDbLine
 10
40.87860248611747
 20
-32.57323679534168
 30
0.0
 11
41.50360248611747
 21
-32.57323679534168
 31
0.0
  0
LWPOLYLINE
  5
C0
330
2
100
AcDbEntity
  8
0
100
AcDbPolyline
 90
        9
 70
     0
 43
0.0
 10
41.91757154051745
 20
-33.24712643054168
 10
41.93435923651747
 20
-33.25296812654168
 10
41.94900376931747
 20
-33.26629490894168
 10
41.96165519651748
 20
-33.28293111374168
 10
41.97258404451747
 20
-33.30062956654168
 10
41.98258622851748
 20
-33.31925375694167
 10
41.99206454211747
 20
-33.33886148494168
 10
42.00127848611745
 20
-33.35961525614168
 10
42.01041767011747
 20
-33.38174038734168
  0
LWPOLYLINE
  5
C1
330
2
100
AcDbEntity
  8
0
100
AcDbPolyline
 90
        9
 70
     0
 43
0.0
 10
42.01962631331747
 20
-33.40549121294167
 10
42.00830795811748
 20
-33.37650191534168
 10
41.99721230211747
 20
-33.35025822574167
 10
41.98617581891747
 20
-33.32646355214168
 10
41.97494361091748
 20
-33.30482241934168
 10
41.96311762371746
 20
-33.28512907694168
 10
41.95003356131747
 20
-33.26748209294168
 10
41.93489793091745
 20
-33.25333308494168
 10
41.91757153891745
 20
-33.24712643054168
  0
LWPOLYLINE
  5
C2
330
2
100
AcDbEntity
  8
0
100
AcDbPolyline
 90
        3
 70
     0
 43
0.0
 10
42.03231559811746
 20
-33.43004635374168
 10
42.02524667651746
 20
-33.41798632814168
 10
42.01962631331747
 20
-33.40549121294167
  0
LINE
  5
C3
330
2
100
AcDbEntity
  8
0
100
AcDbLine
 10
42.30656149891745
 20
-33.74100096494168
 30
0.0
 11
42.24301249571746
 21
-33.65963996654169
 31
0.0
  0
LWPOLYLINE
  5
C4
330
2
100
AcDbEntity
  8
0
100
AcDbPolyline
 90
        3
 70
     0
 43
0.0
 10
42.03231828131746
 20
-33.43005096334167
 10
42.06449575971745
 20
-33.47084840174167
 10
42.10265731811747
 20
-33.51322824014168
  0
LWPOLYLINE
  5
C5
330
2
100
AcDbEntity
  8
0
100
AcDbPolyline
 90
        3
 70
     0
 43
0.0
 10
42.14446085251748
 20
-33.55929141134168
 10
42.07393932291748
 20
-33.48148811694168
 10
42.03231559811746
 20
-33.43004635374168
  0
LINE
  5
C6
330
2
100
AcDbEntity
  8
0
100
AcDbLine
 10
42.17825218371745
 20
-33.59583988494168
 30
0.0
 11
42.12298453571747
 21
-33.53564133774169
 31
0.0
  0
LWPOLYLINE
  5
C7
330
2
100
AcDbEntity
  8
0
100
AcDbPolyline
 90
        3
 70
     0
 43
0.0
 10
42.14446085251748
 20
-33.55929141134168
 10
42.19030722371747
 20
-33.60848282734168
 10
42.21464025731748
 20
-33.63268584814167
  0
LINE
  5
C8
330
2
100
AcDbEntity
  8
0
100
AcDbLine
 10
42.21478877891747
 20
-33.63253419534168
 30
0.0
 11
42.17825218371745
 21
-33.59583988494168
 31
0.0
  0
LINE
  5
C9
330
2
100
AcDbEntity
  8
0
100
AcDbLine
 10
42.24301249571746
 20
-33.65963996654169
 30
0.0
 11
42.21478877891747
 21
-33.63253419534168
 31
0.0
  0
LINE
  5
CA
330
2
100
AcDbEntity
  8
0
100
AcDbLine
 10
42.21464025731748
 20
-33.63268584814168
 30
0.0
 11
42.24301267491748
 21
-33.65963847534168
 31
0.0
  0
LWPOLYLINE
  5
CB
330
2
100
AcDbEntity
  8
0
100
AcDbPolyline
 90
        3
 70
     0
 43
0.0
 10
40.92156074531746
 20
-33.74529600494168
 10
40.88933857091745
 20
-33.67507350894168
 10
40.87860248611747
 20
-33.60695327374168
  0
LINE
  5
CC
330
2
100
AcDbEntity
  8
0
100
AcDbLine
 10
40.70469531331747
 20
-33.24712643054168
 30
0.0
 11
40.66106363331747
 21
-33.24712643054168
 31
0.0
  0
LINE
  5
CD
330
2
100
AcDbEntity
  8
0
100
AcDbLine
 10
41.91757153091749
 20
-33.24712643054168
 30
0.0
 11
40.70469531331747
 21
-33.24712643054168
 31
0.0
  0
LINE
  5
CE
330
2
100
AcDbEntity
  8
0
100
AcDbLine
 10
40.87860248611747
 20
-33.60695327374168
 30
0.0
 11
41.50360248611747
 21
-33.60695327374168
 31
0.0
  0
LINE
  5
CF
330
2
100
AcDbEntity
  8
0
100
AcDbLine
 10
40.87860248611747
 20
-33.60695327374168
 30
0.0
 11
40.87860248611747
 21
-32.57323764654168
 31
0.0
  0
LINE
  5
D0
330
2
100
AcDbEntity
  8
0
100
AcDbLine
 10
46.49819602371747
 20
-32.43040774094168
 30
0.0
 11
46.33347455491747
 21
-32.44010957614168
 31
0.0
  0
LINE
  5
D1
330
2
100
AcDbEntity
  8
0
100
AcDbLine
 10
44.67920170211747
 20
-32.63631247214169
 30
0.0
 11
44.59277904771747
 21
-32.59152124174168
 31
0.0
  0
LINE
  5
D2
330
2
100
AcDbEntity
  8
0
100
AcDbLine
 10
44.77206127651746
 20
-32.67702108014168
 30
0.0
 11
44.67890358851747
 21
-32.63616980654168
 31
0.0
  0
LINE
  5
D3
330
2
100
AcDbEntity
  8
0
100
AcDbLine
 10
44.87204075651746
 20
-32.71302915694168
 30
0.0
 11
44.77179241891747
 21
-32.67691361934168
 31
0.0
  0
LINE
  5
D4
330
2
100
AcDbEntity
  8
0
100
AcDbLine
 10
46.17967102371747
 20
-32.44972131694168
 30
0.0
 11
46.03634238531748
 21
-32.45924692974169
 31
0.0
  0
LINE
  5
D5
330
2
100
AcDbEntity
  8
0
100
AcDbLine
 10
46.03634238531748
 20
-32.45924692974169
 30
0.0
 11
45.90207604451745
 21
-32.46876097934169
 31
0.0
  0
LINE
  5
D6
330
2
100
AcDbEntity
  8
0
100
AcDbLine
 10
45.90207604451745
 20
-32.46876097934169
 30
0.0
 11
45.77647373251747
 21
-32.47827872654168
 31
0.0
  0
LINE
  5
D7
330
2
100
AcDbEntity
  8
0
100
AcDbLine
 10
45.77647373251747
 20
-32.47827872654168
 30
0.0
 11
45.65920054051747
 21
-32.48781821934168
 31
0.0
  0
LINE
  5
D8
330
2
100
AcDbEntity
  8
0
100
AcDbLine
 10
46.33347455491747
 20
-32.44010957614168
 30
0.0
 11
46.17967102371747
 21
-32.44972131694168
 31
0.0
  0
LINE
  5
D9
330
2
100
AcDbEntity
  8
0
100
AcDbLine
 10
45.18668698211746
 20
-32.76529091374168
 30
0.0
 11
45.34556778211748
 21
-32.78804352974168
 31
0.0
  0
LWPOLYLINE
  5
DA
330
2
100
AcDbEntity
  8
0
100
AcDbPolyline
 90
        3
 70
     0
 43
0.0
 10
45.09453218051746
 20
-32.76689694254168
 10
44.97944947971745
 20
-32.74337019854167
 10
44.87204075651746
 20
-32.71302915694167
  0
LWPOLYLINE
  5
DB
330
2
100
AcDbEntity
  8
0
100
AcDbPolyline
 90
        4
 70
     0
 43
0.0
 10
45.13101829251747
 20
-32.77249235374168
 10
45.09443427331746
 20
-32.76688073774168
 10
44.97927669731746
 20
-32.74332802094168
 10
44.87181232931746
 20
-32.71295563694168
  0
LWPOLYLINE
  5
DC
330
2
100
AcDbEntity
  8
0
100
AcDbPolyline
 90
       42
 70
     0
 43
0.0
 10
45.65920054051747
 20
-32.48781821934167
 10
45.60359239811748
 20
-32.49260265294168
 10
45.55004210851746
 20
-32.49739341614167
 10
45.49854754531748
 20
-32.50219114894167
 10
45.44901633731746
 20
-32.50700527054168
 10
45.40135851491746
 20
-32.51184615694167
 10
45.35550535651748
 20
-32.51672336654167
 10
45.31140030211747
 20
-32.52164673774167
 10
45.26900187971747
 20
-32.52662589454168
 10
45.22827753411746
 20
-32.53167085774168
 10
45.18904051171747
 20
-32.53681415214168
 10
45.15101706371746
 20
-32.54210562574167
 10
45.11418495331747
 20
-32.54756531854168
 10
45.07868911811747
 20
-32.55319189134167
 10
45.04467981731747
 20
-32.55898285134168
 10
45.01230833731748
 20
-32.56493527534168
 10
44.98172406371748
 20
-32.57104601614168
 10
44.95300483971746
 20
-32.57732788334168
 10
44.92616066691747
 20
-32.58381446734168
 10
44.90128554851747
 20
-32.59052432814168
 10
44.87858266691747
 20
-32.59745221614168
 10
44.85826967011746
 20
-32.60458698094168
 10
44.84054896771747
 20
-32.61192066414167
 10
44.82561651011747
 20
-32.61944663054168
 10
44.81367981411747
 20
-32.62714381614168
 10
44.80492423171748
 20
-32.63498827534167
 10
44.79950094851747
 20
-32.64297302734168
 10
44.79756622211747
 20
-32.65107966894167
 10
44.79925904291746
 20
-32.65927535054167
 10
44.80468800451745
 20
-32.66753400494168
 10
44.81393560451746
 20
-32.67582852814168
 10
44.82704820611746
 20
-32.68412589934168
 10
44.84401946531747
 20
-32.69238299374168
 10
44.86479783331748
 20
-32.70055964654167
 10
44.88933663491747
 20
-32.70863364974168
 10
44.91757433571746
 20
-32.71658426254168
 10
44.94938144771746
 20
-32.72437985294168
 10
44.98456944611746
 20
-32.73198825934167
 10
45.02336668771746
 20
-32.73946459054168
 10
45.06793344611748
 20
-32.74717343374168
 10
45.12191444931747
 20
-32.75570166734168
 10
45.18668698211746
 20
-32.76529091374168
  0
LINE
  5
DD
330
2
100
AcDbEntity
  8
0
100
AcDbLine
 10
44.10882674531745
 20
-32.40645463854169
 30
0.0
 11
44.12415491011748
 21
-32.50359970574168
 31
0.0
  0
LINE
  5
DE
330
2
100
AcDbEntity
  8
0
100
AcDbLine
 10
44.09389390371745
 20
-32.31929935854168
 30
0.0
 11
44.10885777251746
 21
-32.40664327214168
 31
0.0
  0
LINE
  5
DF
330
2
100
AcDbEntity
  8
0
100
AcDbLine
 10
44.07964741891746
 20
-32.24271498254168
 30
0.0
 11
44.09392886371747
 21
-32.31949507694168
 31
0.0
  0
LINE
  5
E0
330
2
100
AcDbEntity
  8
0
100
AcDbLine
 10
44.06644450851746
 20
-32.17731507854169
 30
0.0
 11
44.07968502531747
 21
-32.24290887694168
 31
0.0
  0
LINE
  5
E1
330
2
100
AcDbEntity
  8
0
100
AcDbLine
 10
44.05457955331747
 20
-32.12310129774168
 30
0.0
 11
44.06648306531747
 21
-32.17749830894168
 31
0.0
  0
LINE
  5
E2
330
2
100
AcDbEntity
  8
0
100
AcDbLine
 10
44.25743011491746
 20
-32.33526681294168
 30
0.0
 11
44.20872034531746
 21
-32.28259712814169
 31
0.0
  0
LINE
  5
E3
330
2
100
AcDbEntity
  8
0
100
AcDbLine
 10
44.31198786531746
 20
-32.38833593134168
 30
0.0
 11
44.25711173731747
 21
-32.33493984174169
 31
0.0
  0
LINE
  5
E4
330
2
100
AcDbEntity
  8
0
100
AcDbLine
 10
44.37278838531748
 20
-32.44132257774168
 30
0.0
 11
44.31165381731747
 21
-32.38802786414168
 31
0.0
  0
LINE
  5
E5
330
2
100
AcDbEntity
  8
0
100
AcDbLine
 10
44.43991259811747
 20
-32.49342847374169
 30
0.0
 11
44.37244511331747
 21
-32.44103972494169
 31
0.0
  0
LINE
  5
E6
330
2
100
AcDbEntity
  8
0
100
AcDbLine
 10
44.51337334371745
 20
-32.54383399214168
 30
0.0
 11
44.43956772451747
 21
-32.49317625934168
 31
0.0
  0
LINE
  5
E7
330
2
100
AcDbEntity
  8
0
100
AcDbLine
 10
44.43658476131747
 20
-32.43856303054168
 30
0.0
 11
44.37662940291747
 21
-31.73996972174168
 31
0.0
  0
LINE
  5
E8
330
2
100
AcDbEntity
  8
0
100
AcDbLine
 10
44.43658476131747
 20
-32.43856303054168
 30
0.0
 11
44.37662940291747
 21
-31.73996972174168
 31
0.0
  0
LINE
  5
E9
330
2
100
AcDbEntity
  8
0
100
AcDbLine
 10
44.18749308131748
 20
-32.46002208494168
 30
0.0
 11
44.12752658691746
 21
-31.76128034574169
 31
0.0
  0
LWPOLYLINE
  5
EA
330
2
100
AcDbEntity
  8
0
100
AcDbPolyline
 90
        8
 70
     0
 43
0.0
 10
44.01916359171747
 20
-31.98963218894167
 10
44.01861155971746
 20
-31.98816513454168
 10
44.01953209571746
 20
-31.99082427694168
 10
44.02274086691747
 20
-32.00073001934168
 10
44.02804731651747
 20
-32.01842073294168
 10
44.03525239651748
 20
-32.04439424494168
 10
44.04415389091747
 20
-32.07910712334168
 10
44.05457955331747
 20
-32.12310129774167
  0
LWPOLYLINE
  5
EB
330
2
100
AcDbEntity
  8
0
100
AcDbPolyline
 90
        5
 70
     0
 43
0.0
 10
44.04190426371747
 20
-32.03984282254168
 10
44.03137121251748
 20
-32.01804842414168
 10
44.02429462051748
 20
-32.00219155214168
 10
44.02014274531746
 20
-31.99214445134168
 10
44.01916359171747
 20
-31.98963218894167
  0
LINE
  5
EC
330
2
100
AcDbEntity
  8
0
100
AcDbLine
 10
44.05655531491746
 20
-32.06774208974168
 30
0.0
 11
44.04181510851748
 21
-32.03966533614169
 31
0.0
  0
LINE
  5
ED
330
2
100
AcDbEntity
  8
0
100
AcDbLine
 10
44.07590392131746
 20
-32.10153052654169
 30
0.0
 11
44.05643074851747
 21
-32.06751434734168
 31
0.0
  0
LINE
  5
EE
330
2
100
AcDbEntity
  8
0
100
AcDbLine
 10
44.10046195971747
 20
-32.14072917134169
 30
0.0
 11
44.07574350531746
 21
-32.10126208494168
 31
0.0
  0
LINE
  5
EF
330
2
100
AcDbEntity
  8
0
100
AcDbLine
 10
44.13064967011746
 20
-32.18463551214169
 30
0.0
 11
44.10026635811746
 21
-32.14043052654168
 31
0.0
  0
LINE
  5
F0
330
2
100
AcDbEntity
  8
0
100
AcDbLine
 10
44.16677011491748
 20
-32.23236542094169
 30
0.0
 11
44.13041914691746
 21
-32.18431533454168
 31
0.0
  0
LINE
  5
F1
330
2
100
AcDbEntity
  8
0
100
AcDbLine
 10
44.20901577251746
 20
-32.28293371214168
 30
0.0
 11
44.16650537411746
 21
-32.23203189134168
 31
0.0
  0
LINE
  5
F2
330
2
100
AcDbEntity
  8
0
100
AcDbLine
 10
44.23030630371747
 20
-33.43370125454169
 30
0.0
 11
44.23291380771746
 21
-33.45610750414168
 31
0.0
  0
LINE
  5
F3
330
2
100
AcDbEntity
  8
0
100
AcDbLine
 10
44.23282802371747
 20
-33.45524209614168
 30
0.0
 11
44.24001474531746
 21
-33.49751668174168
 31
0.0
  0
LINE
  5
F4
330
2
100
AcDbEntity
  8
0
100
AcDbLine
 10
44.23996099491747
 20
-33.49683201454169
 30
0.0
 11
44.24978104451747
 21
-33.53749245454168
 31
0.0
  0
LINE
  5
F5
330
2
100
AcDbEntity
  8
0
100
AcDbLine
 10
44.50471375811747
 20
-33.22653103214168
 30
0.0
 11
44.50461806851746
 21
-33.22543535374169
 31
0.0
  0
LINE
  5
F6
330
2
100
AcDbEntity
  8
0
100
AcDbLine
 10
44.19516233411747
 20
-33.07932435214169
 30
0.0
 11
44.23039349251746
 21
-33.43458376334168
 31
0.0
  0
LWPOLYLINE
  5
F7
330
2
100
AcDbEntity
  8
0
100
AcDbPolyline
 90
        6
 70
     0
 43
0.0
 10
44.12412867651747
 20
-32.50342651694168
 10
44.13951066371746
 20
-32.60927780494167
 10
44.15470575811747
 20
-32.72286882734167
 10
44.16947166531747
 20
-32.84290095374167
 10
44.18358912131748
 20
-32.96794011214167
 10
44.19516225091746
 20
-33.07932353294168
  0
LINE
  5
F8
330
2
100
AcDbEntity
  8
0
100
AcDbLine
 10
44.16666038531746
 20
-32.21784470254169
 30
0.0
 11
44.25553785091747
 21
-33.24704565454168
 31
0.0
  0
LINE
  5
F9
330
2
100
AcDbEntity
  8
0
100
AcDbLine
 10
44.50461783011746
 20
-33.22543262254169
 30
0.0
 11
44.43658476131747
 21
-32.43856303054168
 31
0.0
  0
LINE
  5
FA
330
2
100
AcDbEntity
  8
0
100
AcDbLine
 10
44.50461783011746
 20
-33.22543262254169
 30
0.0
 11
44.43658476131747
 21
-32.43856303054168
 31
0.0
  0
LINE
  5
FB
330
2
100
AcDbEntity
  8
0
100
AcDbLine
 10
44.25553785091747
 20
-33.24704565454168
 30
0.0
 11
44.18749308131748
 21
-32.46002208494168
 31
0.0
  0
LINE
  5
FC
330
2
100
AcDbEntity
  8
0
100
AcDbLine
 10
44.59309928771747
 20
-32.59170039374168
 30
0.0
 11
44.51303590211748
 21
-32.54361688814168
 31
0.0
  0
LINE
  5
FD
330
2
100
AcDbEntity
  8
0
100
AcDbLine
 10
49.12860248611747
 20
-40.32323679534168
 30
0.0
 11
49.12860248611747
 21
-35.76414648494168
 31
0.0
  0
LINE
  5
FE
330
2
100
AcDbEntity
  8
0
100
AcDbLine
 10
55.19110248611747
 20
-40.32323679534168
 30
0.0
 11
55.19110248611747
 21
-35.22377457294168
 31
0.0
  0
LINE
  5
FF
330
2
100
AcDbEntity
  8
0
100
AcDbLine
 10
55.19110248611747
 20
-40.32323679534168
 30
0.0
 11
55.19110248611747
 21
-36.03178139054168
 31
0.0
  0
LINE
  5
100
330
2
100
AcDbEntity
  8
0
100
AcDbLine
 10
51.37076799971746
 20
-38.09055339214168
 30
0.0
 11
51.50620484291747
 21
-39.63860360174168
 31
0.0
  0
LINE
  5
101
330
2
100
AcDbEntity
  8
0
100
AcDbLine
 10
47.76143697411746
 20
-38.09055339214168
 30
0.0
 11
47.62600012931748
 21
-39.63860360174168
 31
0.0
  0
ARC
  5
102
330
2
100
AcDbEntity
  8
0
100
AcDbCircle
 10
46.87885410531746
 20
-39.57323679534168
 30
0.0
 40
0.75
100
AcDbArc
 50
270.0
 51
355.0
  0
ARC
  5
103
330
2
100
AcDbEntity
  8
0
100
AcDbCircle
 10
52.25335086691746
 20
-39.57323679534168
 30
0.0
 40
0.75
100
AcDbArc
 50
185.0
 51
270.0
  0
LINE
  5
104
330
2
100
AcDbEntity
  8
0
100
AcDbLine
 10
48.13500998531748
 20
-37.74823679534168
 30
0.0
 11
51.00337834531746
 21
-37.74823679534168
 31
0.0
  0
ARC
  5
105
330
2
100
AcDbEntity
  8
0
100
AcDbCircle
 10
48.13500998531748
 20
-38.12323679534168
 30
0.0
 40
0.375
100
AcDbArc
 50
90.0
 51
175.0
  0
ARC
  5
106
330
2
100
AcDbEntity
  8
0
100
AcDbCircle
 10
50.99719498691746
 20
-38.12323679534168
 30
0.0
 40
0.375
100
AcDbArc
 50
5.0
 51
90.0
  0
LINE
  5
107
330
2
100
AcDbEntity
  8
0
100
AcDbLine
 10
58.87600012931748
 20
-39.63860360174168
 30
0.0
 11
59.01143697411746
 21
-38.09055339214168
 31
0.0
  0
ARC
  5
108
330
2
100
AcDbEntity
  8
0
100
AcDbCircle
 10
58.12885410531746
 20
-39.57323679534168
 30
0.0
 40
0.75
100
AcDbArc
 50
270.0
 51
355.0
  0
LINE
  5
109
330
2
100
AcDbEntity
  8
0
100
AcDbLine
 10
52.55428261731748
 20
-33.89089655374168
 30
0.0
 11
53.20130571491748
 21
-33.88035531054168
 31
0.0
  0
LWPOLYLINE
  5
10A
330
2
100
AcDbEntity
  8
0
100
AcDbPolyline
 90
        4
 70
     0
 43
0.0
 10
52.12301842531747
 20
-34.20980844174168
 10
52.94664340451745
 20
-34.20400541614167
 10
54.06192586051748
 20
-34.18930004014168
 10
55.19110248611747
 20
-34.16686483054167
  0
LWPOLYLINE
  5
10B
330
2
100
AcDbEntity
  8
0
100
AcDbPolyline
 90
       10
 70
     0
 43
0.0
 10
49.70519573091746
 20
-32.31380749134167
 10
50.04438958371747
 20
-32.30799946414168
 10
50.41143797731746
 20
-32.30251827214168
 10
50.79223078691746
 20
-32.29759794414167
 10
51.18231774211747
 20
-32.29326241454168
 10
51.58385596291748
 20
-32.28944371694167
 10
51.99162778051746
 20
-32.28614655054168
 10
52.39543447971747
 20
-32.28338999214168
 10
52.78771375651746
 20
-32.28114714094167
 10
53.15884987331748
 20
-32.27938528974168
  0
LWPOLYLINE
  5
10C
330
2
100
AcDbEntity
  8
0
100
AcDbPolyline
 90
       16
 70
     0
 43
0.0
 10
49.77356370211746
 20
-34.45093261134168
 10
50.14821441091746
 20
-34.45496903534167
 10
50.52619326691746
 20
-34.45801877454167
 10
50.90742303171746
 20
-34.46006274894168
 10
51.25007144771746
 20
-34.46102316174167
 10
51.59529745731745
 20
-34.46116458414167
 10
51.94315505571748
 20
-34.46048294734168
 10
52.29369823171746
 20
-34.45897418574168
 10
52.64697199171746
 20
-34.45663445614167
 10
53.00298539011746
 20
-34.45346079054167
 10
53.36173849251747
 20
-34.44945044174168
 10
53.72323136931746
 20
-34.44460066414168
 10
54.08746820931748
 20
-34.43890943214167
 10
54.45446981891746
 20
-34.43237759214167
 10
54.82426112611747
 20
-34.42500671374168
 10
55.19686706051746
 20
-34.41679836494167
  0
LWPOLYLINE
  5
10D
330
2
100
AcDbEntity
  8
0
100
AcDbPolyline
 90
       16
 70
     0
 43
0.0
 10
55.19110248131747
 20
-34.16686482734167
 10
54.81901413731748
 20
-34.17506169454168
 10
54.44974951171747
 20
-34.18242198734168
 10
54.08328586051746
 20
-34.18894425134168
 10
53.71960043811748
 20
-34.19462703374168
 10
53.35867278371748
 20
-34.19946956174168
 10
53.00049155811746
 20
-34.20347379374168
 10
52.64504770531747
 20
-34.20664236654168
 10
52.29233216771746
 20
-34.20897791854168
 10
51.94233357571746
 20
-34.21048343374168
 10
51.59503130691746
 20
-34.21116327214168
 10
51.25040242371747
 20
-34.21102214414168
 10
50.90842398691748
 20
-34.21006475214167
 10
50.49232054851748
 20
-34.20778325134168
 10
50.08005327651748
 20
-34.20430036174168
 10
49.67150119811748
 20
-34.19963692814167
  0
LWPOLYLINE
  5
10E
330
2
100
AcDbEntity
  8
0
100
AcDbPolyline
 90
       17
 70
     0
 43
0.0
 10
55.19110248131747
 20
-34.16686482734167
 10
54.81901413731748
 20
-34.17506169454168
 10
54.44974951171747
 20
-34.18242198734168
 10
54.08328586051746
 20
-34.18894425134168
 10
53.71960043811748
 20
-34.19462703374168
 10
53.35867278371748
 20
-34.19946956174168
 10
53.00049155811746
 20
-34.20347379374168
 10
52.64504770531747
 20
-34.20664236654168
 10
52.29233216771746
 20
-34.20897791854168
 10
51.94233357571746
 20
-34.21048343374168
 10
51.59503130691746
 20
-34.21116327214168
 10
51.25040242371747
 20
-34.21102214414168
 10
50.90842398691748
 20
-34.21006475214167
 10
50.56906597731748
 20
-34.20829689934168
 10
50.23227002531746
 20
-34.20572876974168
 10
49.89797067971747
 20
-34.20237164174167
 10
49.56610248611747
 20
-34.19823679534168
  0
LWPOLYLINE
  5
10F
330
2
100
AcDbEntity
  8
0
100
AcDbPolyline
 90
       16
 70
     0
 43
0.0
 10
55.19686706051746
 20
-34.41679836494167
 10
54.82426112611747
 20
-34.42500671374168
 10
54.45446981891746
 20
-34.43237759214167
 10
54.08746820931748
 20
-34.43890943214167
 10
53.72323136931746
 20
-34.44460066414168
 10
53.36173849251747
 20
-34.44945044174168
 10
53.00298539011746
 20
-34.45346079054167
 10
52.64697199171746
 20
-34.45663445614167
 10
52.29369823171746
 20
-34.45897418574168
 10
51.94315505571748
 20
-34.46048294734168
 10
51.59529745731745
 20
-34.46116458414167
 10
51.25007144771746
 20
-34.46102316174167
 10
50.90742303171746
 20
-34.46006274894168
 10
50.49043961251746
 20
-34.45777404334168
 10
50.07735728771746
 20
-34.45428326894168
 10
49.66827724931746
 20
-34.44961542254167
  0
ARC
  5
110
330
2
100
AcDbEntity
  8
0
100
AcDbCircle
 10
49.77053183491747
 20
-34.70091422734168
 30
0.0
 40
0.25
100
AcDbArc
 50
89.30513026040001
 51
134.9999999997999
  0
LINE
  5
111
330
2
100
AcDbEntity
  8
0
100
AcDbLine
 10
49.52552773891747
 20
-33.93069130734168
 30
0.0
 11
50.09728071811747
 21
-33.92451573134168
 31
0.0
  0
LINE
  5
112
330
2
100
AcDbEntity
  8
0
100
AcDbLine
 10
49.66098352771746
 20
-34.20300587374168
 30
0.0
 11
49.86706191171745
 21
-34.20505267054169
 31
0.0
  0
LINE
  5
113
330
2
100
AcDbEntity
  8
0
100
AcDbLine
 10
49.67150176931747
 20
-34.19963501614168
 30
0.0
 11
50.66244328771748
 21
-34.20886343214168
 31
0.0
  0
LINE
  5
114
330
2
100
AcDbEntity
  8
0
100
AcDbLine
 10
49.57414226851748
 20
-34.19979516334168
 30
0.0
 11
49.57114624131747
 21
-34.19977233614168
 31
0.0
  0
LINE
  5
115
330
2
100
AcDbEntity
  8
0
100
AcDbLine
 10
49.66623971971748
 20
-34.19962254894169
 30
0.0
 11
49.67149936611747
 21
-34.19963498574169
 31
0.0
  0
LINE
  5
116
330
2
100
AcDbEntity
  8
0
100
AcDbLine
 10
49.64305628291748
 20
-34.19973244174169
 30
0.0
 11
49.57114624131747
 21
-34.19977233614168
 31
0.0
  0
LINE
  5
117
330
2
100
AcDbEntity
  8
0
100
AcDbLine
 10
49.64725344291747
 20
-34.19975219854169
 30
0.0
 11
49.64305628291748
 21
-34.19973244174169
 31
0.0
  0
LINE
  5
118
330
2
100
AcDbEntity
  8
0
100
AcDbLine
 10
49.66623965731748
 20
-34.19962254894169
 30
0.0
 11
49.64305628291748
 21
-34.19973244174169
 31
0.0
  0
LINE
  5
119
330
2
100
AcDbEntity
  8
0
100
AcDbLine
 10
49.67150056771746
 20
-34.19963500174168
 30
0.0
 11
49.66623965731748
 21
-34.19962254894169
 31
0.0
  0
ARC
  5
11A
330
2
100
AcDbEntity
  8
0
100
AcDbCircle
 10
48.96254909571746
 20
-34.44823679534168
 30
0.0
 40
0.5
100
AcDbArc
 50
269.9999999995
 51
315.0
  0
ARC
  5
11B
330
2
100
AcDbEntity
  8
0
100
AcDbCircle
 10
48.96254909411746
 20
-34.44823679534168
 30
0.0
 40
0.25
100
AcDbArc
 50
270.0016742174
 51
314.9999999728
  0
ARC
  5
11C
330
2
100
AcDbEntity
  8
0
100
AcDbCircle
 10
48.96254909411746
 20
-34.44823679534168
 30
0.0
 40
0.25
100
AcDbArc
 50
270.0016742174
 51
314.9999999728
  0
ARC
  5
11D
330
2
100
AcDbEntity
  8
0
100
AcDbCircle
 10
48.96254909571746
 20
-34.44823679534168
 30
0.0
 40
0.5
100
AcDbArc
 50
269.9999999995
 51
315.0
  0
LINE
  5
11E
330
2
100
AcDbEntity
  8
0
100
AcDbLine
 10
48.69114410691747
 20
-33.93871096494168
 30
0.0
 11
48.41702078851747
 21
-33.94121757294168
 31
0.0
  0
LINE
  5
11F
330
2
100
AcDbEntity
  8
0
100
AcDbLine
 10
48.95451535491748
 20
-34.19460567534168
 30
0.0
 11
49.46084998371748
 21
-34.20071796494168
 31
0.0
  0
LINE
  5
120
330
2
100
AcDbEntity
  8
0
100
AcDbLine
 10
49.28884423011746
 20
-34.19808189934169
 30
0.0
 11
48.92804982691746
 21
-34.19431942254169
 31
0.0
  0
LINE
  5
121
330
2
100
AcDbEntity
  8
0
100
AcDbLine
 10
48.92804982691746
 20
-34.19431942254169
 30
0.0
 11
48.71701475651747
 21
-34.19219046894169
 31
0.0
  0
LINE
  5
122
330
2
100
AcDbEntity
  8
0
100
AcDbLine
 10
49.45205183011748
 20
-34.19931640814168
 30
0.0
 11
49.28884423011746
 21
-34.19808189934169
 31
0.0
  0
LINE
  5
123
330
2
100
AcDbEntity
  8
0
100
AcDbLine
 10
49.45375785251747
 20
-34.19933496174168
 30
0.0
 11
49.45205183011748
 21
-34.19931640814168
 31
0.0
  0
ARC
  5
124
330
2
100
AcDbEntity
  8
0
100
AcDbCircle
 10
49.66827841731748
 20
-34.44961423534168
 30
0.0
 40
0.2499999984
100
AcDbArc
 50
90.46746786099999
 51
134.9999997319
  0
ARC
  5
125
330
2
100
AcDbEntity
  8
0
100
AcDbCircle
 10
49.66827654211747
 20
-34.44961612974168
 30
0.0
 40
0.25
100
AcDbArc
 50
89.26094253770001
 51
135.0
  0
LINE
  5
126
330
2
100
AcDbEntity
  8
0
100
AcDbLine
 10
48.96726804291748
 20
-33.93614576174168
 30
0.0
 11
49.52634796131746
 21
-33.93068292654168
 31
0.0
  0
LINE
  5
127
330
2
100
AcDbEntity
  8
0
100
AcDbLine
 10
49.46063395971748
 20
-34.20071535694168
 30
0.0
 11
49.66131131171747
 21
-34.20300938094168
 31
0.0
  0
LINE
  5
128
330
2
100
AcDbEntity
  8
0
100
AcDbLine
 10
49.57114624131747
 20
-34.19977233614168
 30
0.0
 11
49.45205183011748
 21
-34.19931640814168
 31
0.0
  0
LINE
  5
129
330
2
100
AcDbEntity
  8
0
100
AcDbLine
 10
49.59375514051746
 20
-34.52413753134168
 30
0.0
 11
49.31610248611747
 21
-34.80179018574169
 31
0.0
  0
LINE
  5
12A
330
2
100
AcDbEntity
  8
0
100
AcDbLine
 10
49.66827724931746
 20
-34.44961542254168
 30
0.0
 11
49.31610248611747
 21
-34.80179018574169
 31
0.0
  0
LINE
  5
12B
330
2
100
AcDbEntity
  8
0
100
AcDbLine
 10
49.49149984611747
 20
-34.27283943534169
 30
0.0
 11
49.13932579171748
 21
-34.62501348974169
 31
0.0
  0
LINE
  5
12C
330
2
100
AcDbEntity
  8
0
100
AcDbLine
 10
49.56610248611747
 20
-34.19823679534168
 30
0.0
 11
49.13932579171748
 21
-34.62501348974169
 31
0.0
  0
LINE
  5
12D
330
2
100
AcDbEntity
  8
0
100
AcDbLine
 10
49.12860248611747
 20
-35.76414648494168
 30
0.0
 11
49.12860248611747
 21
-35.35448679534168
 31
0.0
  0
LINE
  5
12E
330
2
100
AcDbEntity
  8
0
100
AcDbLine
 10
46.67591887971747
 20
-33.95673629934168
 30
0.0
 11
46.89782179331746
 21
-33.95512033614169
 31
0.0
  0
LINE
  5
12F
330
2
100
AcDbEntity
  8
0
100
AcDbLine
 10
47.13005441571747
 20
-33.95316780014168
 30
0.0
 11
46.89678300291745
 21
-33.95512853614168
 31
0.0
  0
LINE
  5
130
330
2
100
AcDbEntity
  8
0
100
AcDbLine
 10
47.25409192291746
 20
-35.28768885934168
 30
0.0
 11
46.88805265091747
 21
-35.25866672174168
 31
0.0
  0
LINE
  5
131
330
2
100
AcDbEntity
  8
0
100
AcDbLine
 10
47.25409083811746
 20
-35.28768878094168
 30
0.0
 11
47.62418640131747
 21
-35.31160296014168
 31
0.0
  0
LINE
  5
132
330
2
100
AcDbEntity
  8
0
100
AcDbLine
 10
47.12900464131746
 20
-33.95317709134168
 30
0.0
 11
48.96818796931748
 21
-33.93613710734168
 31
0.0
  0
LWPOLYLINE
  5
133
330
2
100
AcDbEntity
  8
0
100
AcDbPolyline
 90
       11
 70
     0
 43
0.0
 10
48.71701475651747
 20
-34.19219046894168
 10
48.58208367171747
 20
-34.19109233134168
 10
48.44250263971748
 20
-34.19030046574167
 10
48.29947852771747
 20
-34.18996443374167
 10
48.15409341891748
 20
-34.19023990094167
 10
48.00742851011747
 20
-34.19128865294168
 10
47.86055135011747
 20
-34.19327640174167
 10
47.71454932611746
 20
-34.19636985934168
 10
47.56863071971747
 20
-34.20071980174167
 10
47.42087723491747
 20
-34.20613711534168
 10
47.12301854051747
 20
-34.21823566094168
  0
LWPOLYLINE
  5
134
330
2
100
AcDbEntity
  8
0
100
AcDbPolyline
 90
        5
 70
     0
 43
0.0
 10
49.12860248611747
 20
-35.35448679534168
 10
48.75050950691747
 20
-35.35179282094168
 10
48.37320423011746
 20
-35.34372169134167
 10
47.99749371171748
 20
-35.33030652974167
 10
47.62418783811748
 20
-35.31160304334167
  0
LWPOLYLINE
  5
135
330
2
100
AcDbEntity
  8
0
  6
HIDDEN
100
AcDbPolyline
 90
        5
 70
     0
 43
0.0
 10
49.12860248611747
 20
-35.35448679534168
 10
48.71951827971748
 20
-35.35179282094168
 10
48.31128634051748
 20
-35.34372169134167
 10
47.90477987811747
 20
-35.33030652974167
 10
47.50087516291748
 20
-35.31160304334167
  0
LINE
  5
136
330
2
100
AcDbEntity
  8
0
100
AcDbLine
 10
51.29422318691746
 20
-33.90947162094168
 30
0.0
 11
51.91800590851747
 21
-33.90060791854168
 31
0.0
  0
LINE
  5
137
330
2
100
AcDbEntity
  8
0
100
AcDbLine
 10
51.91748724931747
 20
-33.90061556174169
 30
0.0
 11
52.55470132611748
 21
-33.89088994414168
 31
0.0
  0
LINE
  5
138
330
2
100
AcDbEntity
  8
0
100
AcDbLine
 10
51.17989163331748
 20
-34.21133988814168
 30
0.0
 11
51.37045837571747
 21
-34.21140565934168
 31
0.0
  0
LINE
  5
139
330
2
100
AcDbEntity
  8
0
100
AcDbLine
 10
51.37022197731747
 20
-34.21140569454169
 30
0.0
 11
51.59503130691746
 21
-34.21116327214169
 31
0.0
  0
LINE
  5
13A
330
2
100
AcDbEntity
  8
0
100
AcDbLine
 10
51.95337057571745
 20
-34.45910049934168
 30
0.0
 11
52.20362767491747
 21
-34.20884339854168
 31
0.0
  0
LINE
  5
13B
330
2
100
AcDbEntity
  8
0
100
AcDbLine
 10
50.09651483971746
 20
-33.92452445614169
 30
0.0
 11
50.68730102371748
 21
-33.91744202414168
 31
0.0
  0
LINE
  5
13C
330
2
100
AcDbEntity
  8
0
100
AcDbLine
 10
49.86660337571746
 20
-34.20504846414169
 30
0.0
 11
50.07915356611746
 21
-34.20683626414168
 31
0.0
  0
LINE
  5
13D
330
2
100
AcDbEntity
  8
0
100
AcDbLine
 10
50.07857888131747
 20
-34.20683186254168
 30
0.0
 11
50.29839339651747
 21
-34.20834854094168
 31
0.0
  0
LINE
  5
13E
330
2
100
AcDbEntity
  8
0
100
AcDbLine
 10
50.29774987331745
 20
-34.20834458094168
 30
0.0
 11
50.52519027331746
 21
-34.20957388654168
 31
0.0
  0
LINE
  5
13F
330
2
100
AcDbEntity
  8
0
100
AcDbLine
 10
50.52455592931747
 20
-34.20957092494168
 30
0.0
 11
50.75529661571747
 21
-34.21048253294169
 31
0.0
  0
LINE
  5
140
330
2
100
AcDbEntity
  8
0
100
AcDbLine
 10
50.75476017411748
 20
-34.21048079054168
 30
0.0
 11
50.97601612771746
 21
-34.21105527854168
 31
0.0
  0
LINE
  5
141
330
2
100
AcDbEntity
  8
0
100
AcDbLine
 10
50.68660979171747
 20
-33.91745071374169
 30
0.0
 11
51.29483327011747
 21
-33.90946327694168
 31
0.0
  0
LINE
  5
142
330
2
100
AcDbEntity
  8
0
100
AcDbLine
 10
50.66260316931746
 20
-34.20886435374169
 30
0.0
 11
51.84958126531748
 21
-34.21074578094168
 31
0.0
  0
LINE
  5
143
330
2
100
AcDbEntity
  8
0
100
AcDbLine
 10
50.97560437411747
 20
-34.21105447214169
 30
0.0
 11
51.18020625571748
 21
-34.21134015374168
 31
0.0
  0
LINE
  5
144
330
2
100
AcDbEntity
  8
0
100
AcDbLine
 10
52.00714351971746
 20
-34.21026687854169
 30
0.0
 11
50.66244328771748
 21
-34.20886343214168
 31
0.0
  0
LINE
  5
145
330
2
100
AcDbEntity
  8
0
100
AcDbLine
 10
49.70519936451748
 20
-32.31380677454168
 30
0.0
 11
49.52430277411747
 21
-32.31723472014168
 31
0.0
  0
LINE
  5
146
330
2
100
AcDbEntity
  8
0
100
AcDbLine
 10
49.21388323011746
 20
-32.32372877294168
 30
0.0
 11
48.94908761571747
 21
-32.32997321934169
 31
0.0
  0
LINE
  5
147
330
2
100
AcDbEntity
  8
0
100
AcDbLine
 10
48.94908761571747
 20
-32.32997321934169
 30
0.0
 11
48.71599598851748
 21
-32.33611573134168
 31
0.0
  0
LINE
  5
148
330
2
100
AcDbEntity
  8
0
100
AcDbLine
 10
48.71599598851748
 20
-32.33611573134168
 30
0.0
 11
48.46172745571746
 21
-32.34366895214168
 31
0.0
  0
LINE
  5
149
330
2
100
AcDbEntity
  8
0
100
AcDbLine
 10
48.46172745571746
 20
-32.34366895214168
 30
0.0
 11
48.24122251171747
 21
-32.35101443534169
 31
0.0
  0
LINE
  5
14A
330
2
100
AcDbEntity
  8
0
100
AcDbLine
 10
48.24122251171747
 20
-32.35101443534169
 30
0.0
 11
48.08117339811747
 21
-32.35680848174169
 31
0.0
  0
LINE
  5
14B
330
2
100
AcDbEntity
  8
0
100
AcDbLine
 10
48.08117339811747
 20
-32.35680848174169
 30
0.0
 11
47.90460207651747
 21
-32.36359824174168
 31
0.0
  0
LINE
  5
14C
330
2
100
AcDbEntity
  8
0
100
AcDbLine
 10
49.52430277411747
 20
-32.31723472014168
 30
0.0
 11
49.21388323011746
 21
-32.32372877294168
 31
0.0
  0
LINE
  5
14D
330
2
100
AcDbEntity
  8
0
100
AcDbLine
 10
47.66614404931746
 20
-32.37338309454168
 30
0.0
 11
47.34691281251747
 21
-32.38745684494169
 31
0.0
  0
LINE
  5
14E
330
2
100
AcDbEntity
  8
0
100
AcDbLine
 10
47.34691281251747
 20
-32.38745684494169
 30
0.0
 11
47.04339064771747
 21
-32.40173647534168
 31
0.0
  0
LINE
  5
14F
330
2
100
AcDbEntity
  8
0
100
AcDbLine
 10
47.04339064771747
 20
-32.40173647534168
 30
0.0
 11
46.86048281571745
 21
-32.41085010734169
 31
0.0
  0
LINE
  5
150
330
2
100
AcDbEntity
  8
0
100
AcDbLine
 10
46.86048281571745
 20
-32.41085010734169
 30
0.0
 11
46.67314846371747
 21
-32.42068295214169
 31
0.0
  0
LINE
  5
151
330
2
100
AcDbEntity
  8
0
100
AcDbLine
 10
47.90460207651747
 20
-32.36359824174168
 30
0.0
 11
47.66614404931746
 21
-32.37338309454168
 31
0.0
  0
LINE
  5
152
330
2
100
AcDbEntity
  8
0
100
AcDbLine
 10
57.91421270691748
 20
-33.79644240014168
 30
0.0
 11
58.66885967971746
 21
-33.78564861934168
 31
0.0
  0
LINE
  5
153
330
2
100
AcDbEntity
  8
0
100
AcDbLine
 10
55.88466797411746
 20
-33.83026156334168
 30
0.0
 11
56.35109342371745
 21
-33.82183092814168
 31
0.0
  0
LINE
  5
154
330
2
100
AcDbEntity
  8
0
100
AcDbLine
 10
55.54366899011748
 20
-33.83672019854168
 30
0.0
 11
56.01742983171746
 21
-33.82782203214169
 31
0.0
  0
LINE
  5
155
330
2
100
AcDbEntity
  8
0
100
AcDbLine
 10
55.20131136291746
 20
-33.84353706734168
 30
0.0
 11
55.70995382691748
 21
-33.83353039534169
 31
0.0
  0
LWPOLYLINE
  5
156
330
2
100
AcDbEntity
  8
0
100
AcDbPolyline
 90
        3
 70
     0
 43
0.0
 10
55.19110248611747
 20
-33.84374165614168
 10
54.85585938691747
 20
-33.85036382894168
 10
54.52150367971748
 20
-33.85678458894167
  0
LINE
  5
157
330
2
100
AcDbEntity
  8
0
100
AcDbLine
 10
55.19110248611747
 20
-36.03178139054168
 30
0.0
 11
55.19110248611747
 21
-35.35448679534168
 31
0.0
  0
LINE
  5
158
330
2
100
AcDbEntity
  8
0
100
AcDbLine
 10
53.20098979331746
 20
-33.88036061614168
 30
0.0
 11
53.85718604611748
 21
-33.86899956814168
 31
0.0
  0
LWPOLYLINE
  5
159
330
2
100
AcDbEntity
  8
0
100
AcDbPolyline
 90
        3
 70
     0
 43
0.0
 10
53.85696982691746
 20
-33.86900342734168
 10
54.18831591331747
 20
-33.86300117134168
 10
54.52140138371746
 20
-33.85678652654168
  0
LINE
  5
15A
330
2
100
AcDbEntity
  8
0
100
AcDbLine
 10
57.24434696131746
 20
-33.80679089934168
 30
0.0
 11
57.68688205251746
 21
-33.79986953934168
 31
0.0
  0
LINE
  5
15B
330
2
100
AcDbEntity
  8
0
100
AcDbLine
 10
56.90692654051748
 20
-33.81230010574168
 30
0.0
 11
57.35560987491746
 21
-33.80501885134168
 31
0.0
  0
LINE
  5
15C
330
2
100
AcDbEntity
  8
0
100
AcDbLine
 10
56.56754785251746
 20
-33.81805184494168
 30
0.0
 11
57.02280507971747
 21
-33.81038488974168
 31
0.0
  0
LINE
  5
15D
330
2
100
AcDbEntity
  8
0
100
AcDbLine
 10
56.22666266691746
 20
-33.82404179054168
 30
0.0
 11
56.68814264451748
 21
-33.81598358094168
 31
0.0
  0
LINE
  5
15E
330
2
100
AcDbEntity
  8
0
100
AcDbLine
 10
57.58006487651747
 20
-33.80150948974168
 30
0.0
 11
58.01645588931748
 21
-33.79492840334168
 31
0.0
  0
LWPOLYLINE
  5
15F
330
2
100
AcDbEntity
  8
0
100
AcDbPolyline
 90
        5
 70
     0
 43
0.0
 10
57.22335310371747
 20
-32.27938508814168
 10
56.87210626211748
 20
-32.27801693134168
 10
56.54222464611746
 20
-32.27698508494167
 10
56.23360040771746
 20
-32.27622900654167
 10
55.68025739171748
 20
-32.27536495694168
  0
LINE
  5
160
330
2
100
AcDbEntity
  8
0
100
AcDbLine
 10
55.68025739171748
 20
-32.27536495694169
 30
0.0
 11
55.19110248611747
 21
-32.27511905454168
 31
0.0
  0
LINE
  5
161
330
2
100
AcDbEntity
  8
0
100
AcDbLine
 10
54.70194758051746
 20
-32.27536495694169
 30
0.0
 11
55.19110248611747
 21
-32.27511905454168
 31
0.0
  0
LWPOLYLINE
  5
162
330
2
100
AcDbEntity
  8
0
100
AcDbPolyline
 90
        4
 70
     0
 43
0.0
 10
53.15885186851748
 20
-32.27938508814168
 10
53.51009871011746
 20
-32.27801693134168
 10
53.83998032611748
 20
-32.27698508494167
 10
54.14860456451748
 20
-32.27622900654167
  0
LINE
  5
163
330
2
100
AcDbEntity
  8
0
100
AcDbLine
 10
54.14860456451748
 20
-32.27622900654168
 30
0.0
 11
54.70194758051746
 21
-32.27536495694169
 31
0.0
  0
LINE
  5
164
330
2
100
AcDbEntity
  8
0
  6
HIDDEN
100
AcDbLine
 10
68.87860248611747
 20
-40.32323679534168
 30
0.0
 11
68.87860248611747
 21
-32.57323764654168
 31
0.0
  0
LINE
  5
165
330
2
100
AcDbEntity
  8
0
100
AcDbLine
 10
67.86227501411747
 20
-35.79052189294168
 30
0.0
 11
67.67823379171748
 21
-37.72504741614168
 31
0.0
  0
LINE
  5
166
330
2
100
AcDbEntity
  8
0
100
AcDbLine
 10
69.50360248611747
 20
-40.32323679534168
 30
0.0
 11
69.50360248611747
 21
-34.06873133934169
 31
0.0
  0
LINE
  5
167
330
2
100
AcDbEntity
  8
0
100
AcDbLine
 10
61.25360248611747
 20
-40.32323679534168
 30
0.0
 11
61.25360248611747
 21
-35.76410878894168
 31
0.0
  0
LINE
  5
168
330
2
100
AcDbEntity
  8
0
100
AcDbLine
 10
62.75620484291747
 20
-39.63860360174168
 30
0.0
 11
62.62076799971746
 21
-38.09055339214168
 31
0.0
  0
ARC
  5
169
330
2
100
AcDbEntity
  8
0
100
AcDbCircle
 10
63.50335086691746
 20
-39.57323679534168
 30
0.0
 40
0.75
100
AcDbArc
 50
185.0
 51
270.0
  0
ARC
  5
16A
330
2
100
AcDbEntity
  8
0
100
AcDbCircle
 10
62.24719498691746
 20
-38.12323679534168
 30
0.0
 40
0.375
100
AcDbArc
 50
5.0
 51
90.0
  0
LINE
  5
16B
330
2
100
AcDbEntity
  8
0
100
AcDbLine
 10
59.37882662691746
 20
-37.74823679534168
 30
0.0
 11
62.24719498691746
 21
-37.74823679534168
 31
0.0
  0
LINE
  5
16C
330
2
100
AcDbEntity
  8
0
100
AcDbLine
 10
67.67823379171748
 20
-37.72504741614168
 30
0.0
 11
67.49541783171747
 21
-39.63860360174168
 31
0.0
  0
LINE
  5
16D
330
2
100
AcDbEntity
  8
0
100
AcDbLine
 10
66.66831221891746
 20
-40.32323679534168
 30
0.0
 11
66.84141853091748
 21
-40.30708311534168
 31
0.0
  0
LINE
  5
16E
330
2
100
AcDbEntity
  8
0
100
AcDbLine
 10
67.00471419651748
 20
-40.25989249774169
 30
0.0
 11
66.84042128771747
 21
-40.30727125134169
 31
0.0
  0
LWPOLYLINE
  5
16F
330
2
100
AcDbEntity
  8
0
100
AcDbPolyline
 90
        3
 70
     0
 43
0.0
 10
67.15121050531746
 20
-40.18488909774168
 10
67.00268435491747
 20
-40.26069354254167
 10
66.89204390691748
 20
-40.29245294894168
  0
LWPOLYLINE
  5
170
330
2
100
AcDbEntity
  8
0
100
AcDbPolyline
 90
        5
 70
     0
 43
0.0
 10
67.00471419651748
 20
-40.25989249774168
 10
67.15370781091746
 20
-40.18327823214168
 10
67.28320181411746
 20
-40.07905389614168
 10
67.38737244451747
 20
-39.94990215534168
 10
67.45990558851747
 20
-39.80058552494168
  0
LINE
  5
171
330
2
100
AcDbEntity
  8
0
100
AcDbLine
 10
67.28107604451747
 20
-40.08116064174169
 30
0.0
 11
67.15121050531746
 21
-40.18488909774169
 31
0.0
  0
LINE
  5
172
330
2
100
AcDbEntity
  8
0
100
AcDbLine
 10
67.38618216291746
 20
-39.95176353134168
 30
0.0
 11
67.28107604451747
 21
-40.08116064174169
 31
0.0
  0
LINE
  5
173
330
2
100
AcDbEntity
  8
0
100
AcDbLine
 10
67.43670657891747
 20
-39.84834297454169
 30
0.0
 11
67.38618216291746
 21
-39.95176353134168
 31
0.0
  0
LINE
  5
174
330
2
100
AcDbEntity
  8
0
100
AcDbLine
 10
67.49541783171747
 20
-39.63860360174168
 30
0.0
 11
67.45957436451746
 21
-39.80153393934168
 31
0.0
  0
ARC
  5
175
330
2
100
AcDbEntity
  8
0
100
AcDbCircle
 10
65.34877338211746
 20
-33.17954365294168
 30
0.0
 40
0.5308010832
100
AcDbArc
 50
273.0923091767999
 51
355.0402932326
  0
LINE
  5
176
330
2
100
AcDbEntity
  8
0
100
AcDbLine
 10
65.54256000451747
 20
-33.70773650894168
 30
0.0
 11
65.59673031491747
 21
-33.70721639534169
 31
0.0
  0
LINE
  5
177
330
2
100
AcDbEntity
  8
0
100
AcDbLine
 10
65.47916220451748
 20
-33.71069850094169
 30
0.0
 11
65.58808490371745
 21
-33.70779149134168
 31
0.0
  0
ARC
  5
178
330
2
100
AcDbEntity
  8
0
100
AcDbCircle
 10
64.91517261411747
 20
-32.74830922734168
 30
0.0
 40
1.2500000112
100
AcDbArc
 50
273.1833934518999
 51
355.0583210479
  0
ARC
  5
179
330
2
100
AcDbEntity
  8
0
100
AcDbCircle
 10
64.91517261411747
 20
-32.74830922734168
 30
0.0
 40
1.000000009599999
100
AcDbArc
 50
273.1834253660999
 51
355.0582150427999
  0
ARC
  5
17A
330
2
100
AcDbEntity
  8
0
100
AcDbCircle
 10
64.91517261411747
 20
-32.74830922734168
 30
0.0
 40
1.000000009599999
100
AcDbArc
 50
273.1834253660999
 51
355.0582150427999
  0
ARC
  5
17B
330
2
100
AcDbEntity
  8
0
100
AcDbCircle
 10
64.91517261411747
 20
-32.74830922734168
 30
0.0
 40
1.2500000112
100
AcDbArc
 50
273.1833934518999
 51
355.0583210479
  0
LWPOLYLINE
  5
17C
330
2
100
AcDbEntity
  8
0
100
AcDbPolyline
 90
       45
 70
     0
 43
0.0
 10
65.03663725891747
 20
-32.78804352974168
 10
65.19564884291748
 20
-32.76527141614168
 10
65.26037488611746
 20
-32.75568786414167
 10
65.31424140131747
 20
-32.74717712974168
 10
65.35874111491748
 20
-32.73948073294167
 10
65.39753813891747
 20
-32.73200608014168
 10
65.43275069251746
 20
-32.72439399694167
 10
65.46457039811747
 20
-32.71659679534168
 10
65.49281615971747
 20
-32.70864537134168
 10
65.51735953411747
 20
-32.70057144654168
 10
65.53814287171746
 20
-32.69239468814168
 10
65.55511878371746
 20
-32.68413756174167
 10
65.56823731011746
 20
-32.67583913614168
 10
65.57748976771748
 20
-32.66754359534167
 10
65.58292234051748
 20
-32.65928460334168
 10
65.58461846211748
 20
-32.65108859214168
 10
65.58268671971745
 20
-32.64298141614168
 10
65.57726611651748
 20
-32.63499634254167
 10
65.56851324451748
 20
-32.62715190894168
 10
65.55657855811748
 20
-32.61945437774168
 10
65.54164790051746
 20
-32.61192799854168
 10
65.52392899971747
 20
-32.60459401454168
 10
65.50361731651747
 20
-32.59745886254167
 10
65.48091570371747
 20
-32.59053062254167
 10
65.45604148931747
 20
-32.58382040494167
 10
65.42919822371747
 20
-32.57733355054168
 10
65.40047930691748
 20
-32.57105130574167
 10
65.36989499491747
 20
-32.56494018414167
 10
65.33752379651748
 20
-32.55898750894167
 10
65.30351464931746
 20
-32.55319629774167
 10
65.26801887811746
 20
-32.54756948334168
 10
65.23118724611745
 20
-32.54210961294168
 10
65.19316378531747
 20
-32.53681787214168
 10
65.15392481251746
 20
-32.53167408974167
 10
65.11319910851748
 20
-32.52662879374168
 10
65.07080042211746
 20
-32.52164948654167
 10
65.02669511651745
 20
-32.51672598254168
 10
64.98084170371746
 20
-32.51184864814168
 10
64.93318361251747
 20
-32.50700764654168
 10
64.88365204931747
 20
-32.50219340654167
 10
64.83215730851748
 20
-32.49739558094168
 10
64.77860625571747
 20
-32.49260467534168
 10
64.72299712771746
 20
-32.48782009134168
 10
64.66537558851746
 20
-32.48304577134168
 10
64.54398635491748
 20
-32.47352022734168
  0
LWPOLYLINE
  5
17D
330
2
100
AcDbEntity
  8
0
100
AcDbPolyline
 90
       24
 70
     0
 43
0.0
 10
66.36343953731747
 20
-31.98851542574168
 10
66.36355717891746
 20
-31.98818517934167
 10
66.36209840291747
 20
-31.99198291854168
 10
66.35802747331746
 20
-32.00185590094168
 10
66.35104915171746
 20
-32.01752900494168
 10
66.34065175971747
 20
-32.03909697454168
 10
66.32618666211747
 20
-32.06671986734168
 10
66.30706646851746
 20
-32.10021514094167
 10
66.28275261571747
 20
-32.13915844014167
 10
66.25278133731746
 20
-32.18290822254167
 10
66.21683072931748
 20
-32.23058685934168
 10
66.17473206531747
 20
-32.28115976334168
 10
66.12648906531745
 20
-32.33349333294167
 10
66.07214240291748
 20
-32.38654980654168
 10
66.01159663171748
 20
-32.43951749614168
 10
65.94478478371747
 20
-32.49159820814168
 10
65.87170949091748
 20
-32.54197556334168
 10
65.79246003971746
 20
-32.58981703534168
 10
65.70693853091748
 20
-32.63442178574168
 10
65.61473939491747
 20
-32.67517560974168
 10
65.51546457251745
 20
-32.71131294094168
 10
65.40876332291748
 20
-32.74189128014167
 10
65.29434403171745
 20
-32.76577818574168
 10
65.25119359011748
 20
-32.77249138734168
  0
LWPOLYLINE
  5
17E
330
2
100
AcDbEntity
  8
0
100
AcDbPolyline
 90
       17
 70
     0
 43
0.0
 10
67.00212190531747
 20
-34.65602422734168
 10
66.73894546051747
 20
-34.72750509294167
 10
66.46201748611748
 20
-34.79658100654168
 10
66.17207034371748
 20
-34.86292829934168
 10
65.87010120771748
 20
-34.92618164974167
 10
65.55690270691747
 20
-34.98604368494167
 10
65.23348477251747
 20
-35.04219634254168
 10
64.90067633731746
 20
-35.09437869934168
 10
64.55946581411746
 20
-35.14232696174168
 10
64.21069643331748
 20
-35.18582336814167
 10
63.85531270851746
 20
-35.22466029454168
 10
63.49415465091746
 20
-35.25866652014168
 10
63.12811413411748
 20
-35.28768878094167
 10
62.75801857091747
 20
-35.31160296014167
 10
62.38471184771748
 20
-35.33030650414168
 10
62.00900137571747
 20
-35.34372167214167
 10
61.63169562531746
 20
-35.35179281934168
  0
LWPOLYLINE
  5
17F
330
2
100
AcDbEntity
  8
0
  6
HIDDEN
100
AcDbPolyline
 90
       18
 70
     0
 43
0.0
 10
67.74216118371746
 20
-34.58253853454167
 10
67.47331202051748
 20
-34.65602422734168
 10
67.18856373731748
 20
-34.72750509294167
 10
66.88893674691747
 20
-34.79658100654168
 10
66.57522344771746
 20
-34.86292829934168
 10
66.24850274211746
 20
-34.92618164974167
 10
65.90963223171747
 20
-34.98604368494167
 10
65.55970463171746
 20
-35.04219634254168
 10
65.19961681731746
 20
-35.09437869934168
 10
64.83043821891746
 20
-35.14232696174168
 10
64.45308118211747
 20
-35.18582336814167
 10
64.06856764451745
 20
-35.22466029454168
 10
63.67780646691747
 20
-35.25866652014168
 10
63.28176263011747
 20
-35.28768878094167
 10
62.88133136451747
 20
-35.31160296014167
 10
62.47742573091747
 20
-35.33030650414168
 10
62.07091931811746
 20
-35.34372167214167
 10
61.66268686531748
 20
-35.35179281934168
  0
LINE
  5
180
330
2
100
AcDbEntity
  8
0
100
AcDbLine
 10
61.25360248611747
 20
-35.35448679534168
 30
0.0
 11
61.66268669251746
 21
-35.35179282094169
 31
0.0
  0
LINE
  5
181
330
2
100
AcDbEntity
  8
0
100
AcDbLine
 10
61.25360248611747
 20
-35.35448679534168
 30
0.0
 11
61.63169546531747
 21
-35.35179282094169
 31
0.0
  0
LINE
  5
182
330
2
100
AcDbEntity
  8
0
100
AcDbLine
 10
61.25360248611747
 20
-35.76410878894168
 30
0.0
 11
61.25360248611747
 21
-35.35448663534168
 31
0.0
  0
LINE
  5
183
330
2
100
AcDbEntity
  8
0
100
AcDbLine
 10
59.84904627171747
 20
-34.25674658254168
 30
0.0
 11
60.11098201251747
 21
-33.99481084174169
 31
0.0
  0
LINE
  5
184
330
2
100
AcDbEntity
  8
0
100
AcDbLine
 10
62.64479633411747
 20
-32.37038615534168
 30
0.0
 11
62.38731175011747
 21
-32.36007888814168
 31
0.0
  0
LINE
  5
185
330
2
100
AcDbEntity
  8
0
100
AcDbLine
 10
61.93366707651748
 20
-33.74693156174169
 30
0.0
 11
63.52787099011746
 21
-33.73029696174168
 31
0.0
  0
LINE
  5
186
330
2
100
AcDbEntity
  8
0
100
AcDbLine
 10
62.38731175011747
 20
-32.36007888814168
 30
0.0
 11
62.21945516771748
 21
-32.35381008974168
 31
0.0
  0
LINE
  5
187
330
2
100
AcDbEntity
  8
0
100
AcDbLine
 10
62.21945516771748
 20
-32.35381008974168
 30
0.0
 11
62.06551175011748
 21
-32.34841626094169
 31
0.0
  0
LINE
  5
188
330
2
100
AcDbEntity
  8
0
100
AcDbLine
 10
62.06551175011748
 20
-32.34841626094169
 30
0.0
 11
61.92056565571746
 21
-32.34367264494168
 31
0.0
  0
LINE
  5
189
330
2
100
AcDbEntity
  8
0
100
AcDbLine
 10
61.92056565571746
 20
-32.34367264494168
 30
0.0
 11
61.72260775811747
 21
-32.33770963694169
 31
0.0
  0
LINE
  5
18A
330
2
100
AcDbEntity
  8
0
100
AcDbLine
 10
61.72260775811747
 20
-32.33770963694169
 30
0.0
 11
61.43313960131746
 21
-32.32997462254168
 31
0.0
  0
LINE
  5
18B
330
2
100
AcDbEntity
  8
0
100
AcDbLine
 10
61.43313960131746
 20
-32.32997462254168
 30
0.0
 11
61.09581987171748
 21
-32.32213832654168
 31
0.0
  0
LINE
  5
18C
330
2
100
AcDbEntity
  8
0
100
AcDbLine
 10
60.76995025411747
 20
-32.31553810574169
 30
0.0
 11
60.33781539011747
 21
-32.30799946414169
 31
0.0
  0
LINE
  5
18D
330
2
100
AcDbEntity
  8
0
100
AcDbLine
 10
61.09581987171748
 20
-32.32213832654168
 30
0.0
 11
60.76995025411747
 21
-32.31553810574169
 31
0.0
  0
LINE
  5
18E
330
2
100
AcDbEntity
  8
0
100
AcDbLine
 10
61.07578903971748
 20
-33.75617010734169
 30
0.0
 11
61.97570273091748
 21
-33.74648832654168
 31
0.0
  0
LINE
  5
18F
330
2
100
AcDbEntity
  8
0
100
AcDbLine
 10
59.86144755971747
 20
-33.77022278574168
 30
0.0
 11
60.54277179171748
 21
-33.76216620814168
 31
0.0
  0
LINE
  5
190
330
2
100
AcDbEntity
  8
0
100
AcDbLine
 10
60.47880058211745
 20
-33.76290261454168
 30
0.0
 11
61.13052176931748
 21
-33.75556722094168
 31
0.0
  0
LINE
  5
191
330
2
100
AcDbEntity
  8
0
100
AcDbLine
 10
64.54398635491748
 20
-32.47352022734169
 30
0.0
 11
64.41408182851748
 21
-32.46400523694168
 31
0.0
  0
LINE
  5
192
330
2
100
AcDbEntity
  8
0
100
AcDbLine
 10
65.47916220451748
 20
-33.71069850094169
 30
0.0
 11
65.45769718371747
 21
-33.71131810574169
 31
0.0
  0
LINE
  5
193
330
2
100
AcDbEntity
  8
0
100
AcDbLine
 10
65.40016163171748
 20
-33.71329052974168
 30
0.0
 11
65.45832167491747
 21
-33.71131204654168
 31
0.0
  0
LINE
  5
194
330
2
100
AcDbEntity
  8
0
100
AcDbLine
 10
65.40016163171748
 20
-33.71329052974168
 30
0.0
 11
65.34395452131747
 21
-33.71544391534168
 31
0.0
  0
LINE
  5
195
330
2
100
AcDbEntity
  8
0
100
AcDbLine
 10
65.34448365731748
 20
-33.71544393134168
 30
0.0
 11
65.29425443491746
 21
-33.71761559374168
 31
0.0
  0
LINE
  5
196
330
2
100
AcDbEntity
  8
0
100
AcDbLine
 10
65.29495843811748
 20
-33.71760916974168
 30
0.0
 11
65.25271487491747
 21
-33.71966085294168
 31
0.0
  0
LINE
  5
197
330
2
100
AcDbEntity
  8
0
100
AcDbLine
 10
65.25339290691746
 20
-33.71965677934168
 30
0.0
 11
65.21752930051746
 21
-33.72162100334168
 31
0.0
  0
LINE
  5
198
330
2
100
AcDbEntity
  8
0
100
AcDbLine
 10
65.21818335811747
 20
-33.72161993614168
 30
0.0
 11
65.18570247811746
 21
-33.72364126894168
 31
0.0
  0
LINE
  5
199
330
2
100
AcDbEntity
  8
0
100
AcDbLine
 10
65.18641434371748
 20
-33.72363815214169
 30
0.0
 11
65.15589018851748
 21
-33.72580255374169
 31
0.0
  0
LWPOLYLINE
  5
19A
330
2
100
AcDbEntity
  8
0
100
AcDbPolyline
 90
        3
 70
     0
 43
0.0
 10
64.97841104611746
 20
-33.74630768494167
 10
64.99955676931747
 20
-33.74474257934168
 10
65.01561373891746
 20
-33.74325229454167
  0
LINE
  5
19B
330
2
100
AcDbEntity
  8
0
100
AcDbLine
 10
65.12810932291748
 20
-33.72810804014168
 30
0.0
 11
65.15666982531747
 21
-33.72579533774168
 31
0.0
  0
LINE
  5
19C
330
2
100
AcDbEntity
  8
0
100
AcDbLine
 10
65.10121117411748
 20
-33.73066740974168
 30
0.0
 11
65.12890456771748
 21
-33.72809926574168
 31
0.0
  0
LINE
  5
19D
330
2
100
AcDbEntity
  8
0
100
AcDbLine
 10
65.07399139811747
 20
-33.73361685294169
 30
0.0
 11
65.10204416451748
 21
-33.73065302094168
 31
0.0
  0
LINE
  5
19E
330
2
100
AcDbEntity
  8
0
100
AcDbLine
 10
65.02278041251748
 20
-33.74250272334168
 30
0.0
 11
65.03772422531747
 21
-33.74079405614168
 31
0.0
  0
LINE
  5
19F
330
2
100
AcDbEntity
  8
0
100
AcDbLine
 10
65.04834698211746
 20
-33.73667468334168
 30
0.0
 11
65.07490724931748
 21
-33.73358761454168
 31
0.0
  0
LINE
  5
1A0
330
2
100
AcDbEntity
  8
0
100
AcDbLine
 10
64.97070616291748
 20
-33.74676604814168
 30
0.0
 11
64.97208789091747
 21
-33.74660172654168
 31
0.0
  0
LWPOLYLINE
  5
1A1
330
2
100
AcDbEntity
  8
0
100
AcDbPolyline
 90
        9
 70
     0
 43
0.0
 10
65.03772422531747
 20
-33.74079405614168
 10
65.09886656771747
 20
-33.73323306894167
 10
65.12826158051746
 20
-33.72979756654167
 10
65.15736740131746
 20
-33.72675448654168
 10
65.19377618051746
 20
-33.72370111534167
 10
65.24400598371747
 20
-33.72042409774167
 10
65.30924476931748
 20
-33.71709044174168
 10
65.38817505891748
 20
-33.71380132334167
 10
65.47916220451748
 20
-33.71069850094168
  0
LINE
  5
1A2
330
2
100
AcDbEntity
  8
0
100
AcDbLine
 10
65.02731241411746
 20
-33.73937684654169
 30
0.0
 11
65.04923128131747
 21
-33.73663940494168
 31
0.0
  0
LWPOLYLINE
  5
1A3
330
2
100
AcDbEntity
  8
0
100
AcDbPolyline
 90
        3
 70
     0
 43
0.0
 10
64.97070616291748
 20
-33.74676604814168
 10
64.97637316291747
 20
-33.74606529934168
 10
64.98386702051746
 20
-33.74508944814167
  0
LINE
  5
1A4
330
2
100
AcDbEntity
  8
0
100
AcDbLine
 10
65.04834698211746
 20
-33.73667468334168
 30
0.0
 11
65.00863664931748
 21
-33.74173274094168
 31
0.0
  0
LINE
  5
1A5
330
2
100
AcDbEntity
  8
0
100
AcDbLine
 10
65.00929183971746
 20
-33.74170395054168
 30
0.0
 11
64.97610107331746
 21
-33.74607938734168
 31
0.0
  0
LINE
  5
1A6
330
2
100
AcDbEntity
  8
0
100
AcDbLine
 10
64.27538936291748
 20
-32.45449045774168
 30
0.0
 11
64.12699857411746
 21
-32.44493036334168
 31
0.0
  0
LINE
  5
1A7
330
2
100
AcDbEntity
  8
0
100
AcDbLine
 10
64.12699857411746
 20
-32.44493036334168
 30
0.0
 11
63.96769171171746
 21
-32.43526743374168
 31
0.0
  0
LINE
  5
1A8
330
2
100
AcDbEntity
  8
0
100
AcDbLine
 10
63.96769171171746
 20
-32.43526743374168
 30
0.0
 11
63.79768115811748
 21
-32.42554105614169
 31
0.0
  0
LINE
  5
1A9
330
2
100
AcDbEntity
  8
0
100
AcDbLine
 10
63.79768115811748
 20
-32.42554105614169
 30
0.0
 11
63.61726749091747
 21
-32.41579711854169
 31
0.0
  0
LINE
  5
1AA
330
2
100
AcDbEntity
  8
0
100
AcDbLine
 10
63.61726749091747
 20
-32.41579711854169
 30
0.0
 11
63.42707463011746
 21
-32.40608152174168
 31
0.0
  0
LINE
  5
1AB
330
2
100
AcDbEntity
  8
0
100
AcDbLine
 10
63.42707463011746
 20
-32.40608152174168
 30
0.0
 11
63.25631629731748
 21
-32.39776132654168
 31
0.0
  0
LINE
  5
1AC
330
2
100
AcDbEntity
  8
0
100
AcDbLine
 10
63.25631629731748
 20
-32.39776132654168
 30
0.0
 11
62.96843854211747
 21
-32.38443344494168
 31
0.0
  0
LINE
  5
1AD
330
2
100
AcDbEntity
  8
0
100
AcDbLine
 10
62.96843854211747
 20
-32.38443344494168
 30
0.0
 11
62.64479633411747
 21
-32.37038615534168
 31
0.0
  0
LINE
  5
1AE
330
2
100
AcDbEntity
  8
0
100
AcDbLine
 10
63.99970341891748
 20
-33.72526588814168
 30
0.0
 11
63.50851225251748
 21
-33.73050086894169
 31
0.0
  0
LINE
  5
1AF
330
2
100
AcDbEntity
  8
0
100
AcDbLine
 10
65.54687315011747
 20
-33.70768635694168
 30
0.0
 11
63.98689326531746
 21
-33.72540432654168
 31
0.0
  0
LINE
  5
1B0
330
2
100
AcDbEntity
  8
0
100
AcDbLine
 10
64.41408182851748
 20
-32.46400523694168
 30
0.0
 11
64.27538936291748
 21
-32.45449045774168
 31
0.0
  0
LINE
  5
1B1
330
2
100
AcDbEntity
  8
0
100
AcDbLine
 10
68.07564367171747
 20
-33.74100060654169
 30
0.0
 11
68.04757872771748
 21
-33.83499249294168
 31
0.0
  0
LWPOLYLINE
  5
1B2
330
2
100
AcDbEntity
  8
0
100
AcDbPolyline
 90
        4
 70
     0
 43
0.0
 10
68.87860248611747
 20
-33.60695327374168
 10
68.86867978371748
 20
-33.67507336494168
 10
68.83889894531748
 20
-33.74529545774167
 10
68.78927540931747
 20
-33.81742723534168
  0
LWPOLYLINE
  5
1B3
330
2
100
AcDbEntity
  8
0
100
AcDbPolyline
 90
       12
 70
     0
 43
0.0
 10
67.74215727331747
 20
-34.58253965134167
 10
67.99440496771746
 20
-34.50738612494168
 10
68.22913282211747
 20
-34.43098306734167
 10
68.44574688611746
 20
-34.35366662894168
 10
68.64347193891745
 20
-34.27585301294168
 10
68.82183111971747
 20
-34.19786491374168
 10
68.98021821891745
 20
-34.12009652494168
 10
69.11827714531748
 20
-34.04284579214167
 10
69.23558069571746
 20
-33.96646753614168
 10
69.33189056131746
 20
-33.89122727534167
 10
69.40695310371748
 20
-33.81742770574168
 10
69.46064422691748
 20
-33.74529600494168
  0
LINE
  5
1B4
330
2
100
AcDbEntity
  8
0
100
AcDbLine
 10
69.50360248611747
 20
-34.06873133934169
 30
0.0
 11
69.50360248611747
 21
-32.57323764654168
 31
0.0
  0
LWPOLYLINE
  5
1B5
330
2
100
AcDbEntity
  8
0
100
AcDbPolyline
 90
       12
 70
     0
 43
0.0
 10
67.00211886691747
 20
-34.65602508814168
 10
67.25060009251746
 20
-34.58253965134167
 10
67.48373811331745
 20
-34.50738612494168
 10
67.70068355491748
 20
-34.43098306734167
 10
67.90088746211748
 20
-34.35366662894168
 10
68.08363334531748
 20
-34.27585301294168
 10
68.24848046531747
 20
-34.19786491374168
 10
68.39486854211748
 20
-34.12009652494168
 10
68.52246845891747
 20
-34.04284579214167
 10
68.63088537731747
 20
-33.96646753614168
 10
68.71989903971746
 20
-33.89122727534167
 10
68.78927502691746
 20
-33.81742770574168
  0
LINE
  5
1B6
330
2
100
AcDbEntity
  8
0
100
AcDbLine
 10
67.86226175171748
 20
-35.79066185134168
 30
0.0
 11
68.04757872771748
 21
-33.83499249294168
 31
0.0
  0
LINE
  5
1B7
330
2
100
AcDbEntity
  8
0
100
AcDbLine
 10
69.67751874371746
 20
-33.24712643054168
 30
0.0
 11
68.46463353251746
 21
-33.24712643054168
 31
0.0
  0
LINE
  5
1B8
330
2
100
AcDbEntity
  8
0
100
AcDbLine
 10
66.25467838531747
 20
-31.76128034574169
 30
0.0
 11
66.20986124931746
 21
-32.28397196814168
 31
0.0
  0
LINE
  5
1B9
330
2
100
AcDbEntity
  8
0
100
AcDbLine
 10
66.00557556931747
 20
-31.73996972174168
 30
0.0
 11
65.96076667491747
 21
-32.26255108494168
 31
0.0
  0
LINE
  5
1BA
330
2
100
AcDbEntity
  8
0
100
AcDbLine
 10
66.00557556931747
 20
-31.73996972174168
 30
0.0
 11
65.96076667491747
 21
-32.26255108494168
 31
0.0
  0
LINE
  5
1BB
330
2
100
AcDbEntity
  8
0
100
AcDbLine
 10
68.16774618851747
 20
-33.63287041614168
 30
0.0
 11
68.16888631971747
 21
-33.63209287054168
 31
0.0
  0
LINE
  5
1BC
330
2
100
AcDbEntity
  8
0
100
AcDbLine
 10
68.16774392131748
 20
-33.63287123534169
 30
0.0
 11
68.16871395331748
 21
-33.63220131054168
 31
0.0
  0
LINE
  5
1BD
330
2
100
AcDbEntity
  8
0
100
AcDbLine
 10
68.16756629731748
 20
-33.63268545294168
 30
0.0
 11
68.13919279651748
 21
-33.65963961934169
 31
0.0
  0
LINE
  5
1BE
330
2
100
AcDbEntity
  8
0
100
AcDbLine
 10
68.13919204771747
 20
-33.65963876334169
 30
0.0
 11
68.16741467491747
 21
-33.63253456654168
 31
0.0
  0
LINE
  5
1BF
330
2
100
AcDbEntity
  8
0
100
AcDbLine
 10
68.19189844931748
 20
-33.60848290414168
 30
0.0
 11
68.16756629731748
 21
-33.63268545294168
 31
0.0
  0
LWPOLYLINE
  5
1C0
330
2
100
AcDbEntity
  8
0
100
AcDbPolyline
 90
        3
 70
     0
 43
0.0
 10
68.16741467491747
 20
-33.63253456654168
 10
68.20395195811747
 20
-33.59584017774167
 10
68.25921940291746
 20
-33.53564253614168
  0
LINE
  5
1C1
330
2
100
AcDbEntity
  8
0
100
AcDbLine
 10
68.23774502531747
 20
-33.55929066894168
 30
0.0
 11
68.19189844931748
 21
-33.60848290414168
 31
0.0
  0
LINE
  5
1C2
330
2
100
AcDbEntity
  8
0
100
AcDbLine
 10
68.31771048771748
 20
-33.47084658894169
 30
0.0
 11
68.23774502531747
 21
-33.55929066894168
 31
0.0
  0
LINE
  5
1C3
330
2
100
AcDbEntity
  8
0
100
AcDbLine
 10
68.30826441251748
 20
-33.48148994094168
 30
0.0
 11
68.34988719331747
 21
-33.43004995214168
 31
0.0
  0
LINE
  5
1C4
330
2
100
AcDbEntity
  8
0
100
AcDbLine
 10
68.34988899011747
 20
-33.43004735534168
 30
0.0
 11
68.31771048771748
 21
-33.47084658894169
 31
0.0
  0
LINE
  5
1C5
330
2
100
AcDbEntity
  8
0
100
AcDbLine
 10
68.13919279651748
 20
-33.65963961934169
 30
0.0
 11
68.07564367171747
 21
-33.74100060654169
 31
0.0
  0
LWPOLYLINE
  5
1C6
330
2
100
AcDbEntity
  8
0
100
AcDbPolyline
 90
        3
 70
     0
 43
0.0
 10
68.36257856611746
 20
-33.40549183054168
 10
68.35702490691748
 20
-33.41785904494168
 10
68.34988899011747
 20
-33.43004735534167
  0
LWPOLYLINE
  5
1C7
330
2
100
AcDbEntity
  8
0
100
AcDbPolyline
 90
        9
 70
     0
 43
0.0
 10
68.36257856611746
 20
-33.40549183054168
 10
68.37389701731746
 20
-33.37650205774168
 10
68.38499263971747
 20
-33.35025843054168
 10
68.39602910531747
 20
-33.32646377614167
 10
68.40726130211746
 20
-33.30482263534168
 10
68.41908726851747
 20
-33.28512928334168
 10
68.43217131331747
 20
-33.26748226094167
 10
68.44730699651748
 20
-33.25333312334167
 10
68.46463352291746
 20
-33.24712643054168
  0
LWPOLYLINE
  5
1C8
330
2
100
AcDbEntity
  8
0
100
AcDbPolyline
 90
        9
 70
     0
 43
0.0
 10
68.46463352131746
 20
-33.24712643054168
 10
68.44784587651748
 20
-33.25296803854168
 10
68.43320140451746
 20
-33.26629472974168
 10
68.42054995331747
 20
-33.28293093294168
 10
68.40962106691748
 20
-33.30062942734168
 10
68.39961885891748
 20
-33.31925364814168
 10
68.39014053091748
 20
-33.33886140334168
 10
68.38092657091746
 20
-33.35961520014168
 10
68.37178737411747
 20
-33.38174036014168
  0
LINE
  5
1C9
330
2
100
AcDbEntity
  8
0
100
AcDbLine
 10
68.16871395331748
 20
-33.63220131054168
 30
0.0
 11
68.17243868451746
 21
-33.63020341934169
 31
0.0
  0
LINE
  5
1CA
330
2
100
AcDbEntity
  8
0
100
AcDbLine
 10
66.17122673251748
 20
-33.22004677614168
 30
0.0
 11
66.17487134371748
 21
-33.19707201614169
 31
0.0
  0
LINE
  5
1CB
330
2
100
AcDbEntity
  8
0
100
AcDbLine
 10
66.17490534531748
 20
-33.19713954574168
 30
0.0
 11
66.17768229891746
 21
-33.17345040494169
 31
0.0
  0
LINE
  5
1CC
330
2
100
AcDbEntity
  8
0
100
AcDbLine
 10
66.17756984451748
 20
-33.17458470254168
 30
0.0
 11
66.18705001571746
 21
-33.07925059214168
 31
0.0
  0
LINE
  5
1CD
330
2
100
AcDbEntity
  8
0
100
AcDbLine
 10
65.59551769251746
 20
-33.70721410414168
 30
0.0
 11
65.60153384611746
 21
-33.70719930094169
 31
0.0
  0
LINE
  5
1CE
330
2
100
AcDbEntity
  8
0
100
AcDbLine
 10
65.57992857251747
 20
-33.70798697134169
 30
0.0
 11
65.58149741571748
 21
-33.70794969134168
 31
0.0
  0
LINE
  5
1CF
330
2
100
AcDbEntity
  8
0
100
AcDbLine
 10
65.58377272291747
 20
-33.70788804974168
 30
0.0
 11
65.58149741571748
 21
-33.70794969134168
 31
0.0
  0
LINE
  5
1D0
330
2
100
AcDbEntity
  8
0
100
AcDbLine
 10
65.58704078211746
 20
-33.70780909294168
 30
0.0
 11
65.60714637091746
 21
-33.70729751214168
 31
0.0
  0
LINE
  5
1D1
330
2
100
AcDbEntity
  8
0
100
AcDbLine
 10
65.60336141411747
 20
-33.70735765934169
 30
0.0
 11
65.59782198051746
 21
-33.70751293614169
 31
0.0
  0
LINE
  5
1D2
330
2
100
AcDbEntity
  8
0
100
AcDbLine
 10
65.60647181411747
 20
-33.70730349934168
 30
0.0
 11
65.61284014211747
 21
-33.70712000494168
 31
0.0
  0
LINE
  5
1D3
330
2
100
AcDbEntity
  8
0
100
AcDbLine
 10
65.61234753251747
 20
-33.70711759854168
 30
0.0
 11
65.61736585891748
 21
-33.70695502094168
 31
0.0
  0
LINE
  5
1D4
330
2
100
AcDbEntity
  8
0
100
AcDbLine
 10
65.61458285731745
 20
-33.70703769454169
 30
0.0
 11
65.62036114691747
 21
-33.70679994574168
 31
0.0
  0
LWPOLYLINE
  5
1D5
330
2
100
AcDbEntity
  8
0
100
AcDbPolyline
 90
        8
 70
     0
 43
0.0
 10
65.60243897091746
 20
-33.70736940494168
 10
65.60475225891747
 20
-33.70730333454167
 10
65.60554203971747
 20
-33.70725971054167
 10
65.60574744611748
 20
-33.70722626414168
 10
65.60538417731746
 20
-33.70720250414168
 10
65.60446694531748
 20
-33.70718797294168
 10
65.60300948291746
 20
-33.70718224654167
 10
65.60102450211747
 20
-33.70718493134168
  0
LINE
  5
1D6
330
2
100
AcDbEntity
  8
0
100
AcDbLine
 10
65.62036114691747
 20
-33.70679994574168
 30
0.0
 11
65.62418483011746
 21
-33.70661472494168
 31
0.0
  0
LINE
  5
1D7
330
2
100
AcDbEntity
  8
0
100
AcDbLine
 10
65.62383373091748
 20
-33.70666920654168
 30
0.0
 11
65.62883636451747
 21
-33.70635729614169
 31
0.0
  0
LINE
  5
1D8
330
2
100
AcDbEntity
  8
0
100
AcDbLine
 10
65.62811533571746
 20
-33.70644352334168
 30
0.0
 11
65.63477729411747
 21
-33.70597569294168
 31
0.0
  0
LWPOLYLINE
  5
1D9
330
2
100
AcDbEntity
  8
0
100
AcDbPolyline
 90
        5
 70
     0
 43
0.0
 10
65.60312646051747
 20
-33.70720350574168
 10
65.60416244291747
 20
-33.70721674574168
 10
65.60462753251747
 20
-33.70723946254168
 10
65.60450640291747
 20
-33.70727213134168
 10
65.60378266851748
 20
-33.70731526414167
  0
LWPOLYLINE
  5
1DA
330
2
100
AcDbEntity
  8
0
100
AcDbPolyline
 90
       55
 70
     0
 43
0.0
 10
65.63336207011747
 20
-33.70612529614168
 10
65.63989366851746
 20
-33.70566363694168
 10
65.64768312451747
 20
-33.70501683534168
 10
65.65631714851747
 20
-33.70417648174167
 10
65.66533843811746
 20
-33.70315882414168
 10
65.67457129731747
 20
-33.70196859374168
 10
65.68398669571746
 20
-33.70059885454168
 10
65.69358477251748
 20
-33.69903922094168
 10
65.70336035811746
 20
-33.69727986254167
 10
65.71329680131748
 20
-33.69531320174167
 10
65.72336766211748
 20
-33.69313458734168
 10
65.73353919491748
 20
-33.69074264494168
 10
65.74380160931747
 20
-33.68813180014168
 10
65.75416155811746
 20
-33.68529212814168
 10
65.76461393251747
 20
-33.68221627534168
 10
65.77515307491748
 20
-33.67889694894167
 10
65.78577271171747
 20
-33.67532697934167
 10
65.79646593731746
 20
-33.67149936334168
 10
65.80722523651747
 20
-33.66740729614168
 10
65.81804251171746
 20
-33.66304421294167
 10
65.82890911171748
 20
-33.65840381774168
 10
65.83981584451746
 20
-33.65348011374168
 10
65.85075562051748
 20
-33.64826616974168
 10
65.86173205731748
 20
-33.64274936974168
 10
65.87275063811748
 20
-33.63691471374168
 10
65.88381566691746
 20
-33.63074612654168
 10
65.89493018211746
 20
-33.62422647534168
 10
65.90609585571747
 20
-33.61733758574168
 10
65.91731288131746
 20
-33.61006027374168
 10
65.92857986211746
 20
-33.60237437614168
 10
65.93989367811747
 20
-33.59425879054168
 10
65.95124803171748
 20
-33.58569255854168
 10
65.96262951971747
 20
-33.57665827374168
 10
65.97402191971747
 20
-33.56713949614167
 10
65.98540751491748
 20
-33.55711985934168
 10
65.99676702051747
 20
-33.54658316014168
 10
66.00807870371747
 20
-33.53551428174167
 10
66.01931360611747
 20
-33.52390454734168
 10
66.03043952611748
 20
-33.51174904334168
 10
66.04142367331746
 20
-33.49904437134168
 10
66.05223276131747
 20
-33.48578871374167
 10
66.06283309091748
 20
-33.47198191374168
 10
66.07319064771747
 20
-33.45762554414168
 10
66.08327119811747
 20
-33.44272296174167
 10
66.09304041411746
 20
-33.42727935694168
 10
66.10246721731747
 20
-33.41129609934167
 10
66.11152710051746
 20
-33.39476247054168
 10
66.12019420611748
 20
-33.37766648974167
 10
66.12844003011748
 20
-33.35999699374168
 10
66.13623334531746
 20
-33.34174387694167
 10
66.14354015331747
 20
-33.32289834734167
 10
66.15032364611747
 20
-33.30345320494168
 10
66.15654419491747
 20
-33.28340310734168
 10
66.16215931171746
 20
-33.26274507054167
 10
66.16712361571746
 20
-33.24147922414168
  0
LWPOLYLINE
  5
1DB
330
2
100
AcDbEntity
  8
0
100
AcDbPolyline
 90
       54
 70
     0
 43
0.0
 10
65.63477729411747
 20
-33.70597569294167
 10
65.64230861251747
 20
-33.70540520814167
 10
65.65100570851746
 20
-33.70462437774168
 10
65.66022977571748
 20
-33.70365212334167
 10
65.66973231171747
 20
-33.70249429774168
 10
65.67947423651748
 20
-33.70114157934168
 10
65.68945286371747
 20
-33.69958074894167
 10
65.69964676771746
 20
-33.69780160334168
 10
65.71001235811746
 20
-33.69579936494167
 10
65.72048975971748
 20
-33.69357556974168
 10
65.73105393731748
 20
-33.69112746574168
 10
65.74171914211746
 20
-33.68844355854168
 10
65.75247958051747
 20
-33.68551636814167
 10
65.76332890211748
 20
-33.68233852814167
 10
65.77426000451746
 20
-33.67890287214168
 10
65.78526500451747
 20
-33.67520250734168
 10
65.79633527171748
 20
-33.67123086734167
 10
65.80746148451746
 20
-33.66698175214168
 10
65.81863368291746
 20
-33.66244936814168
 10
65.82984132931748
 20
-33.65762837454168
 10
65.84107363651748
 20
-33.65251377454168
 10
65.85232850051747
 20
-33.64709653134168
 10
65.86361261891747
 20
-33.64136229934167
 10
65.87493186531748
 20
-33.63529539694168
 10
65.88629083491747
 20
-33.62887896814167
 10
65.89769275011747
 20
-33.62209500654167
 10
65.90913934371747
 20
-33.61492437934168
 10
65.92063074051748
 20
-33.60734686574168
 10
65.93216532451748
 20
-33.59934118574168
 10
65.94373960451747
 20
-33.59088505614168
 10
65.95534755971747
 20
-33.58195564494168
 10
65.96697900451747
 20
-33.57253098094167
 10
65.97862117891748
 20
-33.56258897294168
 10
65.99025918051748
 20
-33.55210709134168
 10
66.00187575011748
 20
-33.54106255054168
 10
66.01344520291746
 20
-33.52943857774167
 10
66.02492994691747
 20
-33.51723003854167
 10
66.03629087651748
 20
-33.50443479214168
 10
66.04748859331746
 20
-33.49105276974167
 10
66.05848355171747
 20
-33.47708606414168
 10
66.06923619331746
 20
-33.46253899054168
 10
66.07970711491748
 20
-33.44741814414168
 10
66.08985721891747
 20
-33.43173245134168
 10
66.09965086371747
 20
-33.41548806254167
 10
66.10906206051746
 20
-33.39867516974168
 10
66.11806446531748
 20
-33.38128088974168
 10
66.12662885411748
 20
-33.36329313934168
 10
66.13472304771747
 20
-33.34470088654168
 10
66.14231184451748
 20
-33.32549444014168
 10
66.14935697411747
 20
-33.30566574254167
 10
66.15581706851748
 20
-33.28520870414168
 10
66.16164764771747
 20
-33.26411963054168
 10
66.16680105891745
 20
-33.24239806894168
 10
66.17138912131747
 20
-33.21960861134167
  0
LWPOLYLINE
  5
1DC
330
2
100
AcDbEntity
  8
0
100
AcDbPolyline
 90
       17
 70
     0
 43
0.0
 10
66.18705010211747
 20
-33.07924976494168
 10
66.19843481251746
 20
-32.96956617454168
 10
66.21251497571748
 20
-32.84466155214168
 10
66.22724472771747
 20
-32.72473275854167
 10
66.24240695971747
 20
-32.61120101134167
 10
66.25776205731748
 20
-32.50535358254168
 10
66.27304598371748
 20
-32.40832253614168
 10
66.28797265731748
 20
-32.32104191374168
 10
66.30222637411748
 20
-32.24427389614167
 10
66.31544597091746
 20
-32.17866676174168
 10
66.32733152611746
 20
-32.12425494094168
 10
66.33778160131746
 20
-32.08007221934168
 10
66.34671358531747
 20
-32.04517153614168
 10
66.35395670211747
 20
-32.01900818094168
 10
66.35930916451747
 20
-32.00112742414168
 10
66.36257269091746
 20
-31.99103203374168
 10
66.36343953731747
 20
-31.98851542574168
  0
LINE
  5
1DD
330
2
100
AcDbEntity
  8
0
100
AcDbLine
 10
66.16054135811748
 20
-32.85598761934169
 30
0.0
 11
66.23280293251747
 21
-32.01676259694169
 31
0.0
  0
LINE
  5
1DE
330
2
100
AcDbEntity
  8
0
100
AcDbLine
 10
66.20986124931746
 20
-32.28397196814168
 30
0.0
 11
66.16054135811748
 21
-32.85598761934169
 31
0.0
  0
LINE
  5
1DF
330
2
100
AcDbEntity
  8
0
100
AcDbLine
 10
65.96076667491747
 20
-32.26255108494168
 30
0.0
 11
65.91145538531748
 21
-32.83445273774168
 31
0.0
  0
LINE
  5
1E0
330
2
100
AcDbEntity
  8
0
100
AcDbLine
 10
65.96076667491747
 20
-32.26255108494168
 30
0.0
 11
65.91145538531748
 21
-32.83445273774168
 31
0.0
  0
LINE
  5
1E1
330
2
100
AcDbEntity
  8
0
100
AcDbLine
 10
69.50360248611747
 20
-32.57323679534168
 30
0.0
 11
68.87860248611747
 21
-32.57323679534168
 31
0.0
  0
LWPOLYLINE
  5
1E2
330
2
100
AcDbEntity
  8
0
100
AcDbPolyline
 90
        3
 70
     0
 43
0.0
 10
69.50360248611747
 20
-33.60695327374168
 10
69.49286644771746
 20
-33.67507336494168
 10
69.46064455651748
 20
-33.74529545774167
  0
LINE
  5
1E3
330
2
100
AcDbEntity
  8
0
100
AcDbLine
 10
69.50360248611747
 20
-33.60695327374168
 30
0.0
 11
68.87860248611747
 21
-33.60695327374168
 31
0.0
  0
LWPOLYLINE
  5
1E4
330
2
100
AcDbEntity
  8
0
100
AcDbPolyline
 90
       61
 70
     0
 43
0.0
 10
70.88273335651746
 20
-12.56639691374167
 10
70.82378003011746
 20
-12.54812916014167
 10
70.76284549251747
 20
-12.52944828974167
 10
70.69987829571747
 20
-12.51035226414168
 10
70.63472214051748
 20
-12.49080618094166
 10
70.56722870051746
 20
-12.47077638414167
 10
70.49733757411747
 20
-12.45025572974167
 10
70.42503032771747
 20
-12.42925000174167
 10
70.35028408131748
 20
-12.40776375054166
 10
70.27302899171747
 20
-12.38578831054167
 10
70.19318556131747
 20
-12.36331315054167
 10
70.11072222051746
 20
-12.34034188014167
 10
70.02564065731746
 20
-12.31688752334167
 10
69.93770244611747
 20
-12.29289762094168
 10
69.84652289571747
 20
-12.26827900814166
 10
69.75195531331746
 20
-12.24300305614166
 10
69.65393183011747
 20
-12.21706452334166
 10
69.55236058371747
 20
-12.19045235054166
 10
69.44714970371745
 20
-12.16315646254167
 10
69.33822101251746
 20
-12.13517171534167
 10
69.22549215811748
 20
-12.10649292174166
 10
69.10889809571748
 20
-12.07712005134167
 10
68.98842129571747
 20
-12.04706649454167
 10
68.86413146531748
 20
-12.01636912814167
 10
68.73614717571746
 20
-11.98507661774167
 10
68.60448306371748
 20
-11.93542911214167
 10
68.46908226691747
 20
-11.90299695374167
 10
68.32985027811748
 20
-11.86999571854167
 10
68.18671667171748
 20
-11.83643213774168
 10
68.03994022371748
 20
-11.80238955374167
 10
67.89019953731747
 20
-11.76804751374167
 10
67.73845859651746
 20
-11.73365269294167
 10
67.58498616291745
 20
-11.69929232174168
 10
67.42977536131746
 20
-11.66499056174167
 10
67.27292622371746
 20
-11.63079327214167
 10
67.11445727171747
 20
-11.59672636974167
 10
66.95441554691746
 20
-11.56282013134168
 10
66.79281865571747
 20
-11.52909650734167
 10
66.62969217891748
 20
-11.49557788974168
 10
66.46506395811747
 20
-11.46228601614167
 10
66.29895791171747
 20
-11.42924081454168
 10
66.13150698691746
 20
-11.39648254254167
 10
65.96285568611747
 20
-11.36405210574167
 10
65.79307389251747
 20
-11.33197443214167
 10
65.62218182051748
 20
-11.30026392974167
 10
65.45017641251746
 20
-11.26893004814168
 10
65.27704559171747
 20
-11.23798016174167
 10
65.10282417891747
 20
-11.20742967534168
 10
64.92754951331747
 20
-11.17729372014167
 10
64.75125477251748
 20
-11.14758609774167
 10
64.57393100451747
 20
-11.11831307854167
 10
64.39550508931748
 20
-11.08947018094167
 10
64.21597329411747
 20
-11.06106441454167
 10
64.03533923171747
 20
-11.03310383214167
 10
63.85368961251746
 20
-11.00560875214168
 10
63.67118419491745
 20
-10.97860960014168
 10
63.48793492611747
 20
-10.95212858094167
 10
63.30398075011746
 20
-10.92617611694167
 10
63.11930839811748
 20
-10.90075493934168
 10
62.93383722051746
 20
-10.87585883854167
 10
62.74748715331748
 20
-10.85148247214168
  0
LINE
  5
1E5
330
2
100
AcDbEntity
  8
0
100
AcDbLine
 10
55.19110248611747
 20
-14.71601925934167
 30
0.0
 11
55.19110248611747
 21
-11.67624518414168
 31
0.0
  0
LWPOLYLINE
  5
1E6
330
2
100
AcDbEntity
  8
0
100
AcDbPolyline
 90
       15
 70
     0
 43
0.0
 10
72.74087500611748
 20
-12.20281914254167
 10
72.28803643971748
 20
-12.11403433614167
 10
71.80108967651747
 20
-12.02012967694167
 10
71.28661928611745
 20
-11.90547364174167
 10
70.74364517571746
 20
-11.80639405294168
 10
70.16967497251747
 20
-11.70537999054167
 10
69.56233836131747
 20
-11.60247009454167
 10
68.91922949891747
 20
-11.49775426094167
 10
68.23768290531749
 20
-11.39141246894168
 10
67.51490099651746
 20
-11.28378875214167
 10
66.75232377891745
 20
-11.17599529454167
 10
65.95455949411746
 20
-11.06959389134168
 10
65.12676093411747
 20
-10.96615723854168
 10
64.27444899011746
 20
-10.86723466574167
 10
63.41443674851745
 20
-10.77539862094168
  0
LWPOLYLINE
  5
1E7
330
2
100
AcDbEntity
  8
0
100
AcDbPolyline
 90
       16
 70
     0
 43
0.0
 10
46.96779408131746
 20
-10.77539598414168
 10
46.10659412291747
 20
-10.86736420334168
 10
45.25396694051747
 20
-10.96633540174167
 10
44.42587306211746
 20
-11.06982302094168
 10
43.62784867171746
 20
-11.17627472014167
 10
42.86506005411746
 20
-11.28411467214168
 10
42.14212577571745
 20
-11.39177809134167
 10
41.46046785571747
 20
-11.49815428014167
 10
40.81725645891748
 20
-11.60290389454168
 10
40.20980081091747
 20
-11.70585152654167
 10
39.63570376611747
 20
-11.80690611854167
 10
39.09266502051747
 20
-11.90601580814167
 10
38.57824757411748
 20
-12.02067688014167
 10
38.09151887811748
 20
-12.11455027054167
 10
37.63901318371748
 20
-12.20327605614166
 10
36.85985792131748
 20
-12.35753498574167
  0
LWPOLYLINE
  5
1E8
330
2
100
AcDbEntity
  8
0
100
AcDbPolyline
 90
       62
 70
     0
 43
0.0
 10
47.63471782051746
 20
-10.85148247214168
 10
47.44834698051747
 20
-10.87586159054167
 10
47.26278008771745
 20
-10.90077077454168
 10
47.07804360451746
 20
-10.92620129134168
 10
46.89413283971745
 20
-10.95214817294167
 10
46.71089673571748
 20
-10.97862773774167
 10
46.52839582851746
 20
-11.00562664014168
 10
46.34676971811745
 20
-11.03311853134168
 10
46.16614810851745
 20
-11.06107749454167
 10
45.98663027811747
 20
-11.08948131374168
 10
45.80821840291747
 20
-11.11832215694167
 10
45.63089914051746
 20
-11.14759461454167
 10
45.45462807971747
 20
-11.17729838094167
 10
45.27936134211748
 20
-11.20743305454168
 10
45.10513388931747
 20
-11.23798467854167
 10
44.93199332451746
 20
-11.26893641134168
 10
44.75999088771746
 20
-11.30026986414168
 10
44.58910279331746
 20
-11.33197972974167
 10
44.41932200611748
 20
-11.36405730734168
 10
44.25068033411747
 20
-11.39648596654167
 10
44.08323007171747
 20
-11.42924416814167
 10
43.91713922051747
 20
-11.46228637614167
 10
43.75251609731748
 20
-11.49557721774168
 10
43.58939851331746
 20
-11.52909398254168
 10
43.42781418051745
 20
-11.56281492654167
 10
43.26778182051748
 20
-11.59671908814168
 10
43.10931903491746
 20
-11.63078455054167
 10
42.95247901411747
 20
-11.66497971854167
 10
42.79727534211747
 20
-11.69927974894167
 10
42.64379517571746
 20
-11.73364170094167
 10
42.49213625731747
 20
-11.76801768174168
 10
42.34239610051747
 20
-11.80235926574168
 10
42.19566056771748
 20
-11.83639195694168
 10
42.05252210691748
 20
-11.86995624974167
 10
41.91325137891746
 20
-11.90296629454168
 10
41.77783347331746
 20
-11.93540225294168
 10
41.64615840611747
 20
-11.98505214414167
 10
41.51816322851746
 20
-12.01634708014167
 10
41.39386891651748
 20
-12.04704533614167
 10
41.27340656931747
 20
-12.07709506094168
 10
41.15682984451746
 20
-12.10646329294167
 10
41.04411104771748
 20
-12.13513922414167
 10
40.93518801091747
 20
-12.16312219214167
 10
40.82997959011746
 20
-12.19041710094168
 10
40.72840620131748
 20
-12.21702948814167
 10
40.63038638851748
 20
-12.24296669454167
 10
40.53582948931747
 20
-12.26823941134167
 10
40.44465631971746
 20
-12.29285587534167
 10
40.35673038211746
 20
-12.31684198734166
 10
40.27167257891747
 20
-12.34028927534166
 10
40.18924227651746
 20
-12.36325074254167
 10
40.10941873411747
 20
-12.38571962094167
 10
40.03216251971747
 20
-12.40769465774167
 10
39.95741762531747
 20
-12.42917978734167
 10
39.88512191811747
 20
-12.45018139854168
 10
39.81523043971748
 20
-12.47070135854166
 10
39.74771697251748
 20
-12.49073632174167
 10
39.68255634211746
 20
-12.51028299374167
 10
39.61959410211747
 20
-12.52937674894168
 10
39.55864282531746
 20
-12.54806200334167
 10
39.49967651331746
 20
-12.56633308494166
 10
39.38773128291746
 20
-12.60156253934167
  0
LINE
  5
1E9
330
2
100
AcDbEntity
  8
0
100
AcDbLine
 10
34.19110248611747
 20
-14.69823679534168
 30
0.0
 11
76.19110248611747
 21
-14.69823654575306
 31
0.0
  0
LWPOLYLINE
  5
1EA
330
2
100
AcDbEntity
  8
0
  6
HIDDEN
100
AcDbPolyline
 90
       71
 70
     0
 43
0.0
 10
43.55699965731747
 20
-25.34513787534168
 10
43.52549295811747
 20
-25.02446566574167
 10
43.47841339971748
 20
-24.53692622094168
 10
43.43298982371746
 20
-24.05035759694168
 10
43.40439681411746
 20
-23.73121091694167
 10
43.37764845891746
 20
-23.41912984654168
 10
43.35315188771747
 20
-23.11644367534167
 10
43.33648519011745
 20
-22.89691078574168
 10
43.32138436611745
 20
-22.68444613934168
 10
43.30793063331748
 20
-22.47977736654168
 10
43.29624915971746
 20
-22.28464904654168
 10
43.29047489891746
 20
-22.18126818574167
 10
43.28470312291748
 20
-22.08265412334167
 10
43.27834755011747
 20
-21.99001366734167
 10
43.27286136771746
 20
-21.92511795054168
 10
43.26656747811748
 20
-21.86440121294168
 10
43.25931634371747
 20
-21.80800344974167
 10
43.25095843011746
 20
-21.75606465934168
 10
43.24222058531748
 20
-21.71238535534168
 10
43.23251286371745
 20
-21.67233271534168
 10
43.21054031651747
 20
-21.60212201774168
 10
43.18574583971747
 20
-21.54346173294168
 10
43.16568628611747
 20
-21.50589188014168
 10
43.14451781891747
 20
-21.47306497774168
 10
43.12232226691747
 20
-21.44433545774167
 10
43.09918146531745
 20
-21.41905775854167
 10
43.06352446691747
 20
-21.38728331854167
 10
43.02291022051747
 20
-21.35996790254167
 10
42.97419945731746
 20
-21.33566179854168
 10
42.91459308611746
 20
-21.31321902254168
 10
42.84265272131747
 20
-21.29270851854168
 10
42.75728014851748
 20
-21.27450295854168
 10
42.65609801731748
 20
-21.25862667054168
 10
42.54224280931746
 20
-21.24528377614167
 10
42.41807990051748
 20
-21.23423643534168
 10
42.28597466851747
 20
-21.22524680654167
 10
42.10115503811747
 20
-21.21596837294168
 10
41.90955023811747
 20
-21.20886911054167
 10
41.71428966851746
 20
-21.20289287054168
 10
41.45210756291746
 20
-21.19484610734168
 10
41.27369393411746
 20
-21.18818096014167
 10
41.10015591811747
 20
-21.17985451534168
 10
40.93311484611746
 20
-21.16921696334168
 10
40.77406524771745
 20
-21.15555925614168
 10
40.62399447491748
 20
-21.13793538894167
 10
40.48376307331747
 20
-21.11534012174168
 10
40.36329426211747
 20
-21.08900508974168
 10
40.25122521091748
 20
-21.05597701934168
 10
40.14679709251746
 20
-21.01467857134167
 10
40.04957079491745
 20
-20.96383665454168
 10
39.96038605411746
 20
-20.90339518574168
 10
39.88040232291746
 20
-20.83360232654168
 10
39.80787960291746
 20
-20.75151526574168
 10
39.74603513411747
 20
-20.66105902254168
 10
39.69432822691746
 20
-20.56372194574167
 10
39.65206969411747
 20
-20.46072099214168
 10
39.61797634691746
 20
-20.35218755534168
 10
39.59061649731748
 20
-20.23798163854167
 10
39.56598945091747
 20
-20.10112915214168
 10
39.54687180771747
 20
-19.95722640974167
 10
39.53191471331746
 20
-19.80674198894168
 10
39.51976931491748
 20
-19.65014447214167
 10
39.50583444771746
 20
-19.43265834414168
 10
39.49260253731748
 20
-19.20630781134168
 10
39.47817593411747
 20
-18.97226315854167
 10
39.45828026691748
 20
-18.69513749134168
 10
39.43562326211747
 20
-18.41670243534167
 10
39.41155978051748
 20
-18.14433243054168
 10
39.39338835811748
 20
-17.94840353774167
 10
39.37566441891746
 20
-17.76273884494168
 10
39.32380392451747
 20
-17.23162593774168
  0
LWPOLYLINE
  5
1EB
330
2
100
AcDbEntity
  8
0
100
AcDbPolyline
 90
       53
 70
     0
 43
0.0
 10
55.19110248611747
 20
-18.76045216174168
 10
55.08741404771746
 20
-18.76465122734168
 10
54.98784144291747
 20
-18.77690884494167
 10
54.89385864131747
 20
-18.79653369134167
 10
54.80507829571746
 20
-18.82315528334167
 10
54.71868583811747
 20
-18.85749444174168
 10
54.63341264931748
 20
-18.90028099374168
 10
54.55091518691748
 20
-18.95111536974168
 10
54.47158148611745
 20
-19.01023666254167
 10
54.39443319491747
 20
-19.07912579534168
 10
54.31949385091747
 20
-19.15891727854168
 10
54.24801465091746
 20
-19.24969420014168
 10
54.18608245891746
 20
-19.34376630894168
 10
54.13825247811747
 20
-19.43119418254168
 10
54.10218072131747
 20
-19.51435370734167
 10
54.07389946691748
 20
-19.60256388974168
 10
54.05153919011747
 20
-19.70363577774168
 10
54.03448924131746
 20
-19.81949141774168
 10
54.02026698851748
 20
-19.94857575054167
 10
54.00772783971746
 20
-20.09113369134168
 10
53.99559132291748
 20
-20.24793814574167
 10
53.98298204931745
 20
-20.42061456014168
 10
53.96934545571747
 20
-20.61122370894167
 10
53.95369764291746
 20
-20.82221776494167
 10
53.93466441411746
 20
-21.05647544814168
 10
53.91075497731748
 20
-21.31754677454168
 10
53.88020888771746
 20
-21.61008064014168
 10
53.84126210371746
 20
-21.94074032974167
 10
53.79176329251746
 20
-22.31658367694168
 10
53.72927064291747
 20
-22.74205256494167
 10
53.65656796291748
 20
-23.18984039854167
 10
53.57878818051748
 20
-23.62754399694168
 10
53.49783731491746
 20
-24.04954458094167
 10
53.41110093731746
 20
-24.47217670574168
 10
53.31038254211748
 20
-24.93163198574168
 10
53.18765083171746
 20
-25.45489365774168
 10
53.05229426051747
 20
-25.99335540814168
 10
52.91799725571746
 20
-26.49316693454167
 10
52.79325899331746
 20
-26.93044227534168
 10
52.67681134211747
 20
-27.31785607054168
 10
52.56723690371746
 20
-27.66619393134168
 10
52.46442518211748
 20
-27.98023825774168
 10
52.36837885411748
 20
-28.26402878414167
 10
52.27950447491747
 20
-28.51956915054167
 10
52.19825666211747
 20
-28.74800923854167
 10
52.12470397891746
 20
-28.95111700174167
 10
52.05769188451748
 20
-29.13350935854168
 10
51.99509755011746
 20
-29.30189009454167
 10
51.93458343171747
 20
-29.46294042734168
 10
51.87365986051748
 20
-29.62263626894167
 10
51.81133631971746
 20
-29.78253039854168
 10
51.74747547331747
 20
-29.94188599694167
 10
51.68194210531746
 20
-30.09994500814168
  0
LWPOLYLINE
  5
1EC
330
2
100
AcDbEntity
  8
0
100
AcDbPolyline
 90
       43
 70
     0
 43
0.0
 10
56.54010624611746
 20
-30.09994500814168
 10
56.49852452451748
 20
-29.86573074094168
 10
56.45016941731748
 20
-29.59504900494168
 10
56.39566839171746
 20
-29.28540378734167
 10
56.33584244131748
 20
-28.93145841934168
 10
56.27335997251748
 20
-28.53889858574167
 10
56.21081405251747
 20
-28.11488655534168
 10
56.14421766531748
 20
-27.62705690734168
 10
56.07334603971747
 20
-27.06526331214168
 10
55.99809072611748
 20
-26.41431751854168
 10
55.92119131651748
 20
-25.68039560814168
 10
55.85279321091746
 20
-24.95382462254168
 10
55.79949799651746
 20
-24.32477131214167
 10
55.75706799011746
 20
-23.77143109134168
 10
55.72330854211748
 20
-23.28666337134168
 10
55.69587251811748
 20
-22.86020455694168
 10
55.67292750531746
 20
-22.48407947054168
 10
55.65318699651746
 20
-22.15267332334168
 10
55.63550200451746
 20
-21.86040852334168
 10
55.61890835011746
 20
-21.60015929934167
 10
55.60285151171746
 20
-21.36751174574168
 10
55.58707209411747
 20
-21.16034332814167
 10
55.57146084611748
 20
-20.97707837134167
 10
55.55588099651746
 20
-20.81524453294167
 10
55.54025399651746
 20
-20.67252237774167
 10
55.52450542051747
 20
-20.54650300654167
 10
55.50851731971746
 20
-20.43494587054168
 10
55.49216830371747
 20
-20.33593698414168
 10
55.47533958851747
 20
-20.24787245614168
 10
55.45793193251748
 20
-20.16951290574167
 10
55.43989320931746
 20
-20.10002723534167
 10
55.42120144931747
 20
-20.03879796334167
 10
55.40184808771747
 20
-19.98528559854167
 10
55.38184755331747
 20
-19.93902538254167
 10
55.36124580131747
 20
-19.89960623054168
 10
55.34014159971746
 20
-19.86666086574167
 10
55.31871296931746
 20
-19.83983868334168
 10
55.29724598531746
 20
-19.81876232654168
 10
55.27615655171747
 20
-19.80297030734168
 10
55.25552937571745
 20
-19.79165543534168
 10
55.23486786371748
 20
-19.78393914574167
 10
55.21356552611746
 20
-19.77934542414168
 10
55.19110248611747
 20
-19.77778564014167
  0
LWPOLYLINE
  5
1ED
330
2
100
AcDbEntity
  8
0
100
AcDbPolyline
 90
       43
 70
     0
 43
0.0
 10
53.84209872771748
 20
-30.09994500814168
 10
53.88368044771747
 20
-29.86573074094168
 10
53.93203555491746
 20
-29.59504900494168
 10
53.98653658051748
 20
-29.28540378734167
 10
54.04636253091746
 20
-28.93145841934168
 10
54.10884500131746
 20
-28.53889858574167
 10
54.17139091971748
 20
-28.11488655534168
 10
54.23798730691746
 20
-27.62705690734168
 10
54.30885893411747
 20
-27.06526331214168
 10
54.38411424771746
 20
-26.41431751854168
 10
54.46101365731746
 20
-25.68039560814168
 10
54.52941176291748
 20
-24.95382462254168
 10
54.58270697731745
 20
-24.32477131214167
 10
54.62513698211748
 20
-23.77143109134168
 10
54.65889643171746
 20
-23.28666337134168
 10
54.68633245411746
 20
-22.86020455694168
 10
54.70927746851748
 20
-22.48407947054168
 10
54.72901797731748
 20
-22.15267332334168
 10
54.74670296771748
 20
-21.86040852334168
 10
54.76329662371748
 20
-21.60015929934167
 10
54.77935346211748
 20
-21.36751174574168
 10
54.79513287811747
 20
-21.16034332814167
 10
54.81074412611746
 20
-20.97707837134167
 10
54.82632397731745
 20
-20.81524453294167
 10
54.84195097571748
 20
-20.67252237774167
 10
54.85769955331747
 20
-20.54650300654167
 10
54.87368765411748
 20
-20.43494587054168
 10
54.89003666851747
 20
-20.33593698414168
 10
54.90686538531747
 20
-20.24787245614168
 10
54.92427304131746
 20
-20.16951290574167
 10
54.94231176291748
 20
-20.10002723534167
 10
54.96100352451747
 20
-20.03879796334167
 10
54.98035688451747
 20
-19.98528559854167
 10
55.00035741891747
 20
-19.93902538254167
 10
55.02095917091748
 20
-19.89960623054168
 10
55.04206337251748
 20
-19.86666086574167
 10
55.06349200291746
 20
-19.83983868334168
 10
55.08495898851745
 20
-19.81876232654168
 10
55.10604842051748
 20
-19.80297030734168
 10
55.12667559651745
 20
-19.79165543534168
 10
55.14733711011746
 20
-19.78393914574167
 10
55.16863944611748
 20
-19.77934542414168
 10
55.19110248611747
 20
-19.77778564014167
  0
LWPOLYLINE
  5
1EE
330
2
100
AcDbEntity
  8
0
100
AcDbPolyline
 90
       53
 70
     0
 43
0.0
 10
55.19110248611747
 20
-18.76045216174168
 10
55.29479092451746
 20
-18.76465122734168
 10
55.39436352931748
 20
-18.77690884494167
 10
55.48834633251747
 20
-18.79653369134167
 10
55.57712667651748
 20
-18.82315528334167
 10
55.66351913411748
 20
-18.85749444174168
 10
55.74879232291746
 20
-18.90028099374168
 10
55.83128978531746
 20
-18.95111536974168
 10
55.91062348771746
 20
-19.01023666254167
 10
55.98777177891747
 20
-19.07912579534168
 10
56.06271112131747
 20
-19.15891727854168
 10
56.13419032131748
 20
-19.24969420014168
 10
56.19612251331748
 20
-19.34376630894168
 10
56.24395249411747
 20
-19.43119418254168
 10
56.28002425091747
 20
-19.51435370734167
 10
56.30830550531746
 20
-19.60256388974168
 10
56.33066578211748
 20
-19.70363577774168
 10
56.34771573091746
 20
-19.81949141774168
 10
56.36193798371746
 20
-19.94857575054167
 10
56.37447713251749
 20
-20.09113369134168
 10
56.38661365091746
 20
-20.24793814574167
 10
56.39922292451746
 20
-20.42061456014168
 10
56.41285951811747
 20
-20.61122370894167
 10
56.42850733091748
 20
-20.82221776494167
 10
56.44754055971748
 20
-21.05647544814168
 10
56.47144999651747
 20
-21.31754677454168
 10
56.50199608451746
 20
-21.61008064014168
 10
56.54094287011748
 20
-21.94074032974167
 10
56.59044167971746
 20
-22.31658367694168
 10
56.65293432931747
 20
-22.74205256494167
 10
56.72563701091746
 20
-23.18984039854167
 10
56.80341679171746
 20
-23.62754399694168
 10
56.88436765731748
 20
-24.04954458094167
 10
56.97110403491746
 20
-24.47217670574168
 10
57.07182243171747
 20
-24.93163198574168
 10
57.19455414051748
 20
-25.45489365774168
 10
57.32991071171747
 20
-25.99335540814168
 10
57.46420771651748
 20
-26.49316693454167
 10
57.58894598051748
 20
-26.93044227534168
 10
57.70539363171747
 20
-27.31785607054168
 10
57.81496806851746
 20
-27.66619393134168
 10
57.91777979171746
 20
-27.98023825774168
 10
58.01382611971746
 20
-28.26402878414167
 10
58.10270049731747
 20
-28.51956915054167
 10
58.18394831011747
 20
-28.74800923854167
 10
58.25750099331748
 20
-28.95111700174167
 10
58.32451308771746
 20
-29.13350935854168
 10
58.38710742211748
 20
-29.30189009454167
 10
58.44762154051747
 20
-29.46294042734168
 10
58.50854511331746
 20
-29.62263626894167
 10
58.57086865251748
 20
-29.78253039854168
 10
58.63472949891747
 20
-29.94188599694167
 10
58.70026286851748
 20
-30.09994500814168
  0
LWPOLYLINE
  5
1EF
330
2
100
AcDbEntity
  8
0
100
AcDbPolyline
 90
       33
 70
     0
 43
0.0
 10
43.80579679491748
 20
-25.32063263214168
 10
43.77430837731748
 20
-25.00014550894167
 10
43.72728625731747
 20
-24.51319177614168
 10
43.68195586371746
 20
-24.02763130094168
 10
43.65344384771748
 20
-23.70941122574168
 10
43.62678835651746
 20
-23.39842645934167
 10
43.60239288611746
 20
-23.09696085294167
 10
43.58580730531747
 20
-22.87845129134167
 10
43.57080109731746
 20
-22.66735733134167
 10
43.55745539971747
 20
-22.46445538254167
 10
43.54585135651745
 20
-22.27052185774167
 10
43.53719903971748
 20
-22.11654785454168
 10
43.52762173251747
 20
-21.97095299534167
 10
43.51492915171746
 20
-21.83535204974167
 10
43.49693101411747
 20
-21.71135978254167
 10
43.47419941571746
 20
-21.60885936654167
 10
43.44542990851746
 20
-21.51687763214167
 10
43.41089719971748
 20
-21.43479714254168
 10
43.37087599651747
 20
-21.36200045774168
 10
43.32564100611747
 20
-21.29787014094168
 10
43.27546693891747
 20
-21.24178875374167
 10
43.21537036131746
 20
-21.18917177294167
 10
43.14889456451746
 20
-21.14451195214167
 10
43.07518470691746
 20
-21.10696475214167
 10
42.99338594691747
 20
-21.07568564174167
 10
42.90264343971748
 20
-21.04983008654168
 10
42.80210234531748
 20
-21.02855355214168
 10
42.68929741251747
 20
-21.01079944974168
 10
42.56706104131746
 20
-20.99640556334168
 10
42.43698770851747
 20
-20.98486704494168
 10
42.30067188451747
 20
-20.97567905614167
 10
42.11184359011747
 20
-20.96623686734167
 10
41.91781639491748
 20
-20.95902718094168
  0
LWPOLYLINE
  5
1F0
330
2
100
AcDbEntity
  8
0
100
AcDbPolyline
 90
       33
 70
     0
 43
0.0
 10
43.80579679491748
 20
-25.32063263214168
 10
43.77430837731748
 20
-25.00014550894167
 10
43.72728625731747
 20
-24.51319177614168
 10
43.68195586371746
 20
-24.02763130094168
 10
43.65344384771748
 20
-23.70941122574168
 10
43.62678835651746
 20
-23.39842645934167
 10
43.60239288611746
 20
-23.09696085294167
 10
43.58580730531747
 20
-22.87845129134167
 10
43.57080109731746
 20
-22.66735733134167
 10
43.55745539971747
 20
-22.46445538254167
 10
43.54585135651745
 20
-22.27052185774167
 10
43.53719903971748
 20
-22.11654785454168
 10
43.52762173251747
 20
-21.97095299534167
 10
43.51492915171746
 20
-21.83535204974167
 10
43.49693101411747
 20
-21.71135978254167
 10
43.47419941571746
 20
-21.60885936654167
 10
43.44542990851746
 20
-21.51687763214167
 10
43.41089719971748
 20
-21.43479714254168
 10
43.37087599651747
 20
-21.36200045774168
 10
43.32564100611747
 20
-21.29787014094168
 10
43.27546693891747
 20
-21.24178875374167
 10
43.21537036131746
 20
-21.18917177294167
 10
43.14889456451746
 20
-21.14451195214167
 10
43.07518470691746
 20
-21.10696475214167
 10
42.99338594691747
 20
-21.07568564174167
 10
42.90264343971748
 20
-21.04983008654168
 10
42.80210234531748
 20
-21.02855355214168
 10
42.68929741251747
 20
-21.01079944974168
 10
42.56706104131746
 20
-20.99640556334168
 10
42.43698770851747
 20
-20.98486704494168
 10
42.30067188451747
 20
-20.97567905614167
 10
42.11184359011747
 20
-20.96623686734167
 10
41.91781639491748
 20
-20.95902718094168
  0
LWPOLYLINE
  5
1F1
330
2
100
AcDbEntity
  8
0
  6
HIDDEN
100
AcDbPolyline
 90
       71
 70
     0
 43
0.0
 10
39.36433238051748
 20
-17.64600026574167
 10
39.37566441891746
 20
-17.76273884494168
 10
39.39338835811748
 20
-17.94840353774167
 10
39.41155978051748
 20
-18.14433243054168
 10
39.43562326211747
 20
-18.41670243534167
 10
39.45828026691748
 20
-18.69513749134168
 10
39.47817593411747
 20
-18.97226315854167
 10
39.49260253731748
 20
-19.20630781134168
 10
39.50583444771746
 20
-19.43265834414168
 10
39.51976931491748
 20
-19.65014447214167
 10
39.53191471331746
 20
-19.80674198894168
 10
39.54687180771747
 20
-19.95722640974167
 10
39.56598945091747
 20
-20.10112915214168
 10
39.59061649731748
 20
-20.23798163854167
 10
39.61797634691746
 20
-20.35218755534168
 10
39.65206969411747
 20
-20.46072099214168
 10
39.69432822691746
 20
-20.56372194574167
 10
39.74603513411747
 20
-20.66105902254168
 10
39.80787960291746
 20
-20.75151526574168
 10
39.88040232291746
 20
-20.83360232654168
 10
39.96038605411746
 20
-20.90339518574168
 10
40.04957079491745
 20
-20.96383665454168
 10
40.14679709251746
 20
-21.01467857134167
 10
40.25122521091748
 20
-21.05597701934168
 10
40.36329426211747
 20
-21.08900508974168
 10
40.48376307331747
 20
-21.11534012174168
 10
40.62399447491748
 20
-21.13793538894167
 10
40.77406524771745
 20
-21.15555925614168
 10
40.93311484611746
 20
-21.16921696334168
 10
41.10015591811747
 20
-21.17985451534168
 10
41.27369393411746
 20
-21.18818096014167
 10
41.45210756291746
 20
-21.19484610734168
 10
41.71428966851746
 20
-21.20289287054168
 10
41.90955023811747
 20
-21.20886911054167
 10
42.10115503811747
 20
-21.21596837294168
 10
42.28597466851747
 20
-21.22524680654167
 10
42.41807990051748
 20
-21.23423643534168
 10
42.54224280931746
 20
-21.24528377614167
 10
42.65609801731748
 20
-21.25862667054168
 10
42.75728014851748
 20
-21.27450295854168
 10
42.84265272131747
 20
-21.29270851854168
 10
42.91459308611746
 20
-21.31321902254168
 10
42.97419945731746
 20
-21.33566179854168
 10
43.02291022051747
 20
-21.35996790254167
 10
43.06352446691747
 20
-21.38728331854167
 10
43.09918146531745
 20
-21.41905775854167
 10
43.12232226691747
 20
-21.44433545774167
 10
43.14451781891747
 20
-21.47306497774168
 10
43.16568628611747
 20
-21.50589188014168
 10
43.18574583971747
 20
-21.54346173294168
 10
43.21054031651747
 20
-21.60212201774168
 10
43.23251286371745
 20
-21.67233271534168
 10
43.24222058531748
 20
-21.71238535534168
 10
43.25095843011746
 20
-21.75606465934168
 10
43.25931634371747
 20
-21.80800344974167
 10
43.26656747811748
 20
-21.86440121294168
 10
43.27286136771746
 20
-21.92511795054168
 10
43.27834755011747
 20
-21.99001366734167
 10
43.28470312291748
 20
-22.08265412334167
 10
43.29047489891746
 20
-22.18126818574167
 10
43.29624915971746
 20
-22.28464904654168
 10
43.30793063331748
 20
-22.47977736654168
 10
43.32138436611745
 20
-22.68444613934168
 10
43.33648519011745
 20
-22.89691078574168
 10
43.35315188771747
 20
-23.11644367534167
 10
43.37764845891746
 20
-23.41912984654168
 10
43.40439681411746
 20
-23.73121091694167
 10
43.43298982371746
 20
-24.05035759694168
 10
43.47841339971748
 20
-24.53692622094168
 10
43.52549295811747
 20
-25.02446566574167
 10
43.55699965731747
 20
-25.34513787534168
  0
LWPOLYLINE
  5
1F2
330
2
100
AcDbEntity
  8
0
100
AcDbPolyline
 90
       47
 70
     0
 43
0.0
 10
39.21678425571747
 20
-13.29461458734167
 10
39.27172657411748
 20
-14.03978967214167
 10
39.31968643011746
 20
-14.78683040974167
 10
39.36228735651747
 20
-15.51747812814167
 10
39.40115289091747
 20
-16.26682134254167
 10
39.43790656931748
 20
-17.01660138094168
 10
39.47417192451746
 20
-17.76634196814168
 10
39.52099703171745
 20
-18.69714244974167
 10
39.57268919651747
 20
-19.62623307054168
 10
39.58582940611748
 20
-19.84025084174168
 10
39.60063942371746
 20
-20.05480322254168
 10
39.61172480451748
 20
-20.19387975374167
 10
39.62466009091747
 20
-20.33313794574168
 10
39.64007933411747
 20
-20.47225533294168
 10
39.65861658211747
 20
-20.61090945454167
 10
39.68090588611747
 20
-20.74877784494167
 10
39.70758129251746
 20
-20.88553804014168
 10
39.73927685411746
 20
-21.02086758094167
 10
39.77662661891747
 20
-21.15444399854168
 10
39.82026463651746
 20
-21.28594483214168
 10
39.87082495491748
 20
-21.41504761934168
 10
39.92043568131745
 20
-21.52397006414167
 10
39.97616574371747
 20
-21.62988821134168
 10
40.03852631971748
 20
-21.73181686254167
 10
40.10080244131748
 20
-21.81975977454168
 10
40.16834973731747
 20
-21.90383251374167
 10
40.24061647971746
 20
-21.98422096974167
 10
40.31705093731747
 20
-22.06111102894168
 10
40.39710138051748
 20
-22.13468858574167
 10
40.48021607811747
 20
-22.20513952654167
 10
40.56584330211745
 20
-22.27264974094168
 10
40.65343131971746
 20
-22.33740512014168
 10
40.80167983331747
 20
-22.43902327854168
 10
40.95346293411748
 20
-22.53407430734167
 10
41.10845074371747
 20
-22.62303662254167
 10
41.26631337411746
 20
-22.70638863534168
 10
41.42672094211746
 20
-22.78460875854168
 10
41.63531965411746
 20
-22.87815844174168
 10
41.84671446691746
 20
-22.96570719374167
 10
42.06006840931746
 20
-23.04888659534167
 10
42.27454450531746
 20
-23.12932822894168
 10
42.60767392451746
 20
-23.25197174254167
 10
42.94035053091747
 20
-23.37513523854167
 10
43.27143594531747
 20
-23.50199792654167
 10
43.51897192131747
 20
-23.60187940654167
 10
43.76447475651747
 20
-23.70701686574168
 10
44.00745859811746
 20
-23.81876716814167
  0
LWPOLYLINE
  5
1F3
330
2
100
AcDbEntity
  8
0
100
AcDbPolyline
 90
       19
 70
     0
 43
0.0
 10
35.01575350691746
 20
-14.71601919054168
 10
35.21059958851748
 20
-15.71041388014167
 10
35.39609917891747
 20
-16.72434551854168
 10
35.57223728451748
 20
-17.73994526414168
 10
35.73899891331746
 20
-18.75712667214168
 10
35.89636907491746
 20
-19.77580329774168
 10
36.02926219011746
 20
-20.68887703054168
 10
36.15460959011747
 20
-21.60301721614168
 10
36.27240302531745
 20
-22.51816144494168
 10
36.38263444451746
 20
-23.43424729134167
 10
36.48529659811746
 20
-24.35121224174167
 10
36.58038243171748
 20
-25.26899376014168
 10
36.64672070691747
 20
-25.95782814414167
 10
36.70879096771747
 20
-26.64706022414168
 10
36.76659088131748
 20
-27.33666354894168
 10
36.82011824451746
 20
-28.02661165934168
 10
36.86937095971746
 20
-28.71687809134167
 10
36.91434717731747
 20
-29.40743635534168
 10
36.95975024611746
 20
-30.18315367854167
  0
LWPOLYLINE
  5
1F4
330
2
100
AcDbEntity
  8
0
100
AcDbPolyline
 90
       12
 70
     0
 43
0.0
 10
44.10323999971746
 20
-28.51028477294168
 10
44.08102577731748
 20
-28.25237769454167
 10
44.05921284131747
 20
-28.00204713774167
 10
44.03750430051746
 20
-27.75624120654168
 10
44.01184959971746
 20
-27.47039419534167
 10
43.98554616931747
 20
-27.18258665454168
 10
43.95820888611746
 20
-26.88884123694168
 10
43.93680238051746
 20
-26.66230675054168
 10
43.91447482211748
 20
-26.42890060174168
 10
43.89110333091747
 20
-26.18732844334167
 10
43.86656503011747
 20
-25.93629592814168
 10
43.80579679491748
 20
-25.32063263214168
  0
LWPOLYLINE
  5
1F5
330
2
100
AcDbEntity
  8
0
100
AcDbPolyline
 90
       12
 70
     0
 43
0.0
 10
44.10323999971746
 20
-28.51028477294168
 10
44.08102577731748
 20
-28.25237769454167
 10
44.05921284131747
 20
-28.00204713774167
 10
44.03750430051746
 20
-27.75624120654168
 10
44.01184959971746
 20
-27.47039419534167
 10
43.98554616931747
 20
-27.18258665454168
 10
43.95820888611746
 20
-26.88884123694168
 10
43.93680238051746
 20
-26.66230675054168
 10
43.91447482211748
 20
-26.42890060174168
 10
43.89110333091747
 20
-26.18732844334167
 10
43.86656503011747
 20
-25.93629592814168
 10
43.80579679491748
 20
-25.32063263214168
  0
LWPOLYLINE
  5
1F6
330
2
100
AcDbEntity
  8
0
100
AcDbPolyline
 90
       12
 70
     0
 43
0.0
 10
43.85414946531748
 20
-28.53164278894168
 10
43.83195550691747
 20
-28.27396430574168
 10
43.81016657251746
 20
-28.02390360014168
 10
43.78848512451748
 20
-27.77839978254167
 10
43.76286525731745
 20
-27.49293633934168
 10
43.73659944131747
 20
-27.20553660814168
 10
43.70930199811747
 20
-26.91221563214168
 10
43.68792611491747
 20
-26.68600219694168
 10
43.66562760611748
 20
-26.45289728654168
 10
43.64228107971746
 20
-26.21158167054167
 10
43.61776114531747
 20
-25.96073611374168
 10
43.55699965731747
 20
-25.34513787534168
  0
LWPOLYLINE
  5
1F7
330
2
100
AcDbEntity
  8
0
100
AcDbPolyline
 90
       12
 70
     0
 43
0.0
 10
43.55699965731747
 20
-25.34513787534168
 10
43.61776114531747
 20
-25.96073611374168
 10
43.64228107971746
 20
-26.21158167054167
 10
43.66562760611748
 20
-26.45289728654168
 10
43.68792611491747
 20
-26.68600219694168
 10
43.70930199811747
 20
-26.91221563214168
 10
43.73659944131747
 20
-27.20553660814168
 10
43.76286525731745
 20
-27.49293633934168
 10
43.78848512451748
 20
-27.77839978254167
 10
43.81016657251746
 20
-28.02390360014168
 10
43.83195550691747
 20
-28.27396430574168
 10
43.85414946531748
 20
-28.53164278894168
  0
LINE
  5
1F8
330
2
100
AcDbEntity
  8
0
100
AcDbLine
 10
44.15832779971748
 20
-29.15893840494168
 30
0.0
 11
44.10323999971746
 21
-28.51028477294168
 31
0.0
  0
LINE
  5
1F9
330
2
100
AcDbEntity
  8
0
100
AcDbLine
 10
44.15832779971748
 20
-29.15893840494168
 30
0.0
 11
44.10323999971746
 21
-28.51028477294168
 31
0.0
  0
LINE
  5
1FA
330
2
100
AcDbEntity
  8
0
100
AcDbLine
 10
43.90920768291747
 20
-29.17996784814168
 30
0.0
 11
43.85414946531748
 21
-28.53164278894169
 31
0.0
  0
LINE
  5
1FB
330
2
100
AcDbEntity
  8
0
100
AcDbLine
 10
43.85414946531748
 20
-28.53164278894169
 30
0.0
 11
43.89285081251748
 21
-28.98638093934168
 31
0.0
  0
LINE
  5
1FC
330
2
100
AcDbEntity
  8
0
100
AcDbLine
 10
44.31583503971748
 20
-31.02636141934169
 30
0.0
 11
44.26297919011747
 21
-30.40171518574168
 31
0.0
  0
LINE
  5
1FD
330
2
100
AcDbEntity
  8
0
100
AcDbLine
 10
44.31583503971748
 20
-31.02636141934169
 30
0.0
 11
44.26297919011747
 21
-30.40171518574168
 31
0.0
  0
LINE
  5
1FE
330
2
100
AcDbEntity
  8
0
100
AcDbLine
 10
44.06672044931747
 20
-31.04751294414168
 30
0.0
 11
44.01385600291746
 21
-30.42274591854168
 31
0.0
  0
LINE
  5
1FF
330
2
100
AcDbEntity
  8
0
100
AcDbLine
 10
44.01385600291746
 20
-30.42274591854168
 30
0.0
 11
44.08603491651746
 21
-31.27481489934168
 31
0.0
  0
LINE
  5
200
330
2
100
AcDbEntity
  8
0
100
AcDbLine
 10
44.26297919011747
 20
-30.40171518574168
 30
0.0
 11
44.15832779971748
 21
-29.15893840494168
 31
0.0
  0
LINE
  5
201
330
2
100
AcDbEntity
  8
0
100
AcDbLine
 10
44.26297919011747
 20
-30.40171518574168
 30
0.0
 11
44.15832779971748
 21
-29.15893840494168
 31
0.0
  0
LINE
  5
202
330
2
100
AcDbEntity
  8
0
100
AcDbLine
 10
44.01385600291746
 20
-30.42274591854168
 30
0.0
 11
43.90920768291747
 21
-29.17996784814168
 31
0.0
  0
LINE
  5
203
330
2
100
AcDbEntity
  8
0
100
AcDbLine
 10
43.89285081251748
 20
-28.98638093934168
 30
0.0
 11
44.01385600291746
 21
-30.42274591854168
 31
0.0
  0
LINE
  5
204
330
2
100
AcDbEntity
  8
0
100
AcDbLine
 10
43.74335983491747
 20
-27.28246768014168
 30
0.0
 11
43.97316419971747
 21
-27.05266331534168
 31
0.0
  0
LWPOLYLINE
  5
205
330
2
100
AcDbEntity
  8
0
100
AcDbPolyline
 90
        3
 70
     0
 43
0.0
 10
53.76972358851748
 20
-30.51810944014167
 10
53.80508844771748
 20
-30.31232431694167
 10
53.84209345411747
 20
-30.09994500654168
  0
LINE
  5
206
330
2
100
AcDbEntity
  8
0
100
AcDbLine
 10
56.67875182051748
 20
-30.90482374414168
 30
0.0
 11
56.57711652611746
 21
-30.31232431694168
 31
0.0
  0
LINE
  5
207
330
2
100
AcDbEntity
  8
0
100
AcDbLine
 10
56.57711652611746
 20
-30.31232431694168
 30
0.0
 11
56.54011151971747
 21
-30.09994500654169
 31
0.0
  0
LWPOLYLINE
  5
208
330
2
100
AcDbEntity
  8
0
100
AcDbPolyline
 90
        3
 70
     0
 43
0.0
 10
46.63566893731746
 20
-11.87086551694167
 10
46.56021146531748
 20
-12.82723189454167
 10
46.48475784291747
 20
-13.77071651054166
  0
LWPOLYLINE
  5
209
330
2
100
AcDbEntity
  8
0
  6
HIDDEN
100
AcDbPolyline
 90
      110
 70
     0
 43
0.0
 10
39.51819072611746
 20
-16.33296503214168
 10
39.63897298371747
 20
-16.38472899694167
 10
39.75989352131747
 20
-16.43414560974167
 10
39.88097726051748
 20
-16.48142737294168
 10
40.00224912611748
 20
-16.52678679374167
 10
40.12373403971747
 20
-16.57043637614168
 10
40.24545692771747
 20
-16.61258862734167
 10
40.36744270851747
 20
-16.65345604974167
 10
40.48971631011747
 20
-16.69325114894168
 10
40.61230265251746
 20
-16.73218643214167
 10
40.82693044291747
 20
-16.79867122894168
 10
41.04271762051746
 20
-16.86431438414167
 10
41.25979641731746
 20
-16.93024334894167
 10
41.31107795171746
 20
-16.94587609454167
 10
41.36245143171746
 20
-16.96133989134168
 10
41.41392997411748
 20
-16.97638754734167
 10
41.46552669251747
 20
-16.99077186574167
 10
41.51725470531746
 20
-17.00424565774167
 10
41.56912712931748
 20
-17.01656172814168
 10
41.62115707651747
 20
-17.02747288654167
 10
41.67335766691746
 20
-17.03673193774167
 10
41.72574201411745
 20
-17.04409169134167
 10
41.77832323491748
 20
-17.04930495214168
 10
41.83111444611748
 20
-17.05212452814167
 10
41.88807888131748
 20
-17.05242621134168
 10
41.94517994691747
 20
-17.05070605454167
 10
42.00229656291748
 20
-17.04799275694168
 10
42.07402141411748
 20
-17.04453617294167
 10
42.14569501571747
 20
-17.04186068654168
 10
42.21743303171746
 20
-17.04069115374167
 10
42.28935111651748
 20
-17.04175244014168
 10
42.32361717891746
 20
-17.04327849614168
 10
42.35784183011747
 20
-17.04572697614167
 10
42.39191682371748
 20
-17.04935231694167
 10
42.42573391331745
 20
-17.05440895374168
 10
42.45918485411746
 20
-17.06115132334167
 10
42.49216139971747
 20
-17.06983386414168
 10
42.52568806371747
 20
-17.08107215534167
 10
42.55847806211747
 20
-17.09454879694168
 10
42.59041923171747
 20
-17.11014986734167
 10
42.62139940611746
 20
-17.12776144654168
 10
42.65130642211746
 20
-17.14726961294168
 10
42.68002811331746
 20
-17.16856044974167
 10
42.70745231491747
 20
-17.19152003374168
 10
42.73652154851745
 20
-17.21909765294168
 10
42.76374912291745
 20
-17.24848964334168
 10
42.78906398211748
 20
-17.27955742574168
 10
42.81239506851747
 20
-17.31216242094167
 10
42.83367132451746
 20
-17.34616604974168
 10
42.85282169411746
 20
-17.38142973454168
 10
42.86977511971747
 20
-17.41781489614167
 10
42.88446054531746
 20
-17.45518295694168
 10
42.89680691491748
 20
-17.49339533774168
 10
42.90739467171746
 20
-17.53522046254168
 10
42.91518169091747
 20
-17.57763704334168
 10
42.92014874371747
 20
-17.62042203854167
 10
42.92227659651746
 20
-17.66335241454167
 10
42.92154602051747
 20
-17.70620512814168
 10
42.91793778371746
 20
-17.74875714094167
 10
42.91143265571747
 20
-17.79078541614168
 10
42.90210108131748
 20
-17.83200180014168
 10
42.89020494851746
 20
-17.87255353294168
 10
42.87607942691747
 20
-17.91251854414167
 10
42.86005968291746
 20
-17.95197476174168
 10
42.84248088771747
 20
-17.99100011374167
 10
42.82367820771748
 20
-18.02967252814168
 10
42.81125445571746
 20
-18.05386907534168
 10
42.79810315491746
 20
-18.07756823214168
 10
42.78385086051748
 20
-18.10038218254168
 10
42.76812412291747
 20
-18.12192311534167
 10
42.75054949891748
 20
-18.14180321294168
 10
42.73377373091747
 20
-18.15731161614167
 10
42.71559435331747
 20
-18.17138719534168
 10
42.69624650851747
 20
-18.18410848494168
 10
42.67596533571747
 20
-18.19555401454167
 10
42.65498597571746
 20
-18.20580231534167
 10
42.63354356771748
 20
-18.21493192014168
 10
42.59741459811746
 20
-18.22792088334168
 10
42.56086026531747
 20
-18.23895546574168
 10
42.52408323011747
 20
-18.24894758094168
 10
42.48728615171748
 20
-18.25880914574168
 10
42.43364283651746
 20
-18.27435437774168
 10
42.38026224771746
 20
-18.29104587054168
 10
42.32701524771747
 20
-18.30835325294168
 10
42.27377270531746
 20
-18.32574615694167
 10
42.22040548291746
 20
-18.34269420974168
 10
42.16678444931747
 20
-18.35866704334168
 10
42.11278046531748
 20
-18.37313428654167
 10
42.05826440131747
 20
-18.38556557134167
 10
42.01142077891748
 20
-18.39416600334168
 10
41.96424830691748
 20
-18.40072699374167
 10
41.91688223171746
 20
-18.40506656014167
 10
41.86536500291746
 20
-18.40715095214167
 10
41.81380213891748
 20
-18.40676851854168
 10
41.76221679811746
 20
-18.40428601454168
 10
41.71063214691748
 20
-18.40007019214167
 10
41.65907134531747
 20
-18.39448780014168
 10
41.60755755651746
 20
-18.38790559374167
 10
41.55611394211746
 20
-18.38069032494168
 10
41.40861341571747
 20
-18.35829185934167
 10
41.26180991811748
 20
-18.33380936974167
 10
41.11562797571747
 20
-18.30736294414167
 10
40.96999211651746
 20
-18.27907267534168
 10
40.82482686531747
 20
-18.24905865134167
 10
40.63003724931746
 20
-18.20614801934168
 10
40.43577949571747
 20
-18.16062466574168
 10
40.24186953571748
 20
-18.11278146894167
 10
40.04812330371746
 20
-18.06291131214168
 10
39.85435673251746
 20
-18.01130707374167
 10
39.66038575331748
 20
-17.95826163534167
  0
LINE
  5
20A
330
2
100
AcDbEntity
  8
0
100
AcDbLine
 10
39.51897557251746
 20
-16.63483411854168
 30
0.0
 11
39.49953912291746
 21
-16.41185199854168
 31
0.0
  0
LINE
  5
20B
330
2
100
AcDbEntity
  8
0
100
AcDbLine
 10
39.51897557251746
 20
-16.63483411854168
 30
0.0
 11
39.49953912291746
 21
-16.41185199854168
 31
0.0
  0
LINE
  5
20C
330
2
100
AcDbEntity
  8
0
100
AcDbLine
 10
39.26995774691746
 20
-16.65697050574169
 30
0.0
 11
39.25045345731746
 21
-16.43321665614168
 31
0.0
  0
LINE
  5
20D
330
2
100
AcDbEntity
  8
0
100
AcDbLine
 10
39.25045345731746
 20
-16.43321665614168
 30
0.0
 11
39.26995774691746
 21
-16.65697050574169
 31
0.0
  0
LINE
  5
20E
330
2
100
AcDbEntity
  8
0
100
AcDbLine
 10
39.58954584451745
 20
-17.38080994574168
 30
0.0
 11
39.25046253251747
 21
-13.27717413614168
 31
0.0
  0
LWPOLYLINE
  5
20F
330
2
100
AcDbEntity
  8
0
100
AcDbPolyline
 90
       34
 70
     0
 43
0.0
 10
41.91781639491748
 20
-20.95902718094168
 10
41.46048495171746
 20
-20.94498642254168
 10
41.28411871171747
 20
-20.93840311854167
 10
41.11385414691747
 20
-20.93024119054168
 10
40.95150894051747
 20
-20.91989449454167
 10
40.83604056451747
 20
-20.91033608014168
 10
40.72681610691748
 20
-20.89895205774168
 10
40.62460240451748
 20
-20.88548670574167
 10
40.53016628931746
 20
-20.86968430734168
 10
40.42510532611745
 20
-20.84659772974168
 10
40.33195978691748
 20
-20.81912191534168
 10
40.24964316451746
 20
-20.78681300494167
 10
40.17706894851747
 20
-20.74922713934167
 10
40.11315062851747
 20
-20.70592045934167
 10
40.05680169571746
 20
-20.65644910574167
 10
40.00515575011746
 20
-20.59797516974168
 10
39.96004731011746
 20
-20.53201980654167
 10
39.92099382851748
 20
-20.45825771694168
 10
39.88751275171748
 20
-20.37636360014168
 10
39.85912153251746
 20
-20.28601215214167
 10
39.83533762051746
 20
-20.18687807694168
 10
39.81322901411747
 20
-20.06329602574167
 10
39.79547875811746
 20
-19.92899373294167
 10
39.78110954531746
 20
-19.78503269134167
 10
39.76914406851747
 20
-19.63247439374168
 10
39.75530907651748
 20
-19.41746334734168
 10
39.74210737731747
 20
-19.19120459854168
 10
39.72763638851748
 20
-18.95584735854168
 10
39.70760176131747
 20
-18.67656913134167
 10
39.68476059491746
 20
-18.39588699534167
 10
39.66052840771746
 20
-18.12164718414168
 10
39.64227154211747
 20
-17.92479913294168
 10
39.62449726371747
 20
-17.73860269614167
 10
39.57262851011748
 20
-17.20741475854167
  0
LWPOLYLINE
  5
210
330
2
100
AcDbEntity
  8
0
100
AcDbPolyline
 90
       34
 70
     0
 43
0.0
 10
41.91781639491748
 20
-20.95902718094168
 10
41.46048495171746
 20
-20.94498642254168
 10
41.28411871171747
 20
-20.93840311854167
 10
41.11385414691747
 20
-20.93024119054168
 10
40.95150894051747
 20
-20.91989449454167
 10
40.83604056451747
 20
-20.91033608014168
 10
40.72681610691748
 20
-20.89895205774168
 10
40.62460240451748
 20
-20.88548670574167
 10
40.53016628931746
 20
-20.86968430734168
 10
40.42510532611745
 20
-20.84659772974168
 10
40.33195978691748
 20
-20.81912191534168
 10
40.24964316451746
 20
-20.78681300494167
 10
40.17706894851747
 20
-20.74922713934167
 10
40.11315062851747
 20
-20.70592045934167
 10
40.05680169571746
 20
-20.65644910574167
 10
40.00515575011746
 20
-20.59797516974168
 10
39.96004731011746
 20
-20.53201980654167
 10
39.92099382851748
 20
-20.45825771694168
 10
39.88751275171748
 20
-20.37636360014168
 10
39.85912153251746
 20
-20.28601215214167
 10
39.83533762051746
 20
-20.18687807694168
 10
39.81322901411747
 20
-20.06329602574167
 10
39.79547875811746
 20
-19.92899373294167
 10
39.78110954531746
 20
-19.78503269134167
 10
39.76914406851747
 20
-19.63247439374168
 10
39.75530907651748
 20
-19.41746334734168
 10
39.74210737731747
 20
-19.19120459854168
 10
39.72763638851748
 20
-18.95584735854168
 10
39.70760176131747
 20
-18.67656913134167
 10
39.68476059491746
 20
-18.39588699534167
 10
39.66052840771746
 20
-18.12164718414168
 10
39.64227154211747
 20
-17.92479913294168
 10
39.62449726371747
 20
-17.73860269614167
 10
39.57262851011748
 20
-17.20741475854167
  0
LWPOLYLINE
  5
211
330
2
100
AcDbEntity
  8
0
100
AcDbPolyline
 90
        4
 70
     0
 43
0.0
 10
39.26995774691746
 20
-16.65697050574168
 10
39.28127036451746
 20
-16.78250282094167
 10
39.29353295811748
 20
-16.91505000174167
 10
39.30744022691746
 20
-17.06191460494167
  0
LWPOLYLINE
  5
212
330
2
100
AcDbEntity
  8
0
100
AcDbPolyline
 90
        4
 70
     0
 43
0.0
 10
39.55630200771747
 20
-17.03808681934168
 10
39.54244402051747
 20
-16.89174085134168
 10
39.53023571491746
 20
-16.75978316334168
 10
39.51897557251746
 20
-16.63483411854167
  0
LWPOLYLINE
  5
213
330
2
100
AcDbEntity
  8
0
100
AcDbPolyline
 90
        4
 70
     0
 43
0.0
 10
39.55630200771747
 20
-17.03808681934168
 10
39.54244402051747
 20
-16.89174085134168
 10
39.53023571491746
 20
-16.75978316334168
 10
39.51897557251746
 20
-16.63483411854167
  0
LWPOLYLINE
  5
214
330
2
100
AcDbEntity
  8
0
100
AcDbPolyline
 90
        4
 70
     0
 43
0.0
 10
39.30744022691746
 20
-17.06191460494167
 10
39.29353295811748
 20
-16.91505000174167
 10
39.28127036451746
 20
-16.78250282094167
 10
39.26995774691746
 20
-16.65697050574168
  0
LINE
  5
215
330
2
100
AcDbEntity
  8
0
100
AcDbLine
 10
39.57262851011748
 20
-17.20741475854168
 30
0.0
 11
39.55630200771747
 21
-17.03808681934169
 31
0.0
  0
LINE
  5
216
330
2
100
AcDbEntity
  8
0
100
AcDbLine
 10
39.57262851011748
 20
-17.20741475854168
 30
0.0
 11
39.55630200771747
 21
-17.03808681934169
 31
0.0
  0
LINE
  5
217
330
2
100
AcDbEntity
  8
0
100
AcDbLine
 10
39.32380392451747
 20
-17.23162593774168
 30
0.0
 11
39.30744022691746
 21
-17.06191460494168
 31
0.0
  0
LINE
  5
218
330
2
100
AcDbEntity
  8
0
100
AcDbLine
 10
39.30744022691746
 20
-17.06191460494168
 30
0.0
 11
39.36433238051748
 21
-17.64600026574168
 31
0.0
  0
LINE
  5
219
330
2
100
AcDbEntity
  8
0
100
AcDbLine
 10
42.11528976451748
 20
-21.21721597294168
 30
0.0
 11
42.34410251011746
 21
-20.98840322734168
 31
0.0
  0
LINE
  5
21A
330
2
100
AcDbEntity
  8
CENTER
 48
4.0
100
AcDbLine
 10
44.08215725731747
 20
-15.79572132174168
 30
0.0
 11
34.91619618371746
 21
-16.59763900494169
 31
0.0
  0
LINE
  5
21B
330
2
100
AcDbEntity
  8
0
100
AcDbLine
 10
39.07545934051748
 20
-14.39669455534168
 30
0.0
 11
38.98089091651746
 21
-13.30738367374168
 31
0.0
  0
LINE
  5
21C
330
2
100
AcDbEntity
  8
0
100
AcDbLine
 10
38.98089091651746
 20
-13.30738367374168
 30
0.0
 11
39.07545934051748
 21
-14.39669455534168
 31
0.0
  0
LINE
  5
21D
330
2
100
AcDbEntity
  8
0
100
AcDbLine
 10
39.37479303651747
 20
-14.95947412974167
 30
0.0
 11
39.29041858051746
 21
-13.98094938094168
 31
0.0
  0
LINE
  5
21E
330
2
100
AcDbEntity
  8
0
100
AcDbLine
 10
39.37479303651747
 20
-14.95947412974167
 30
0.0
 11
39.29041858051746
 21
-13.98094938094168
 31
0.0
  0
LINE
  5
21F
330
2
100
AcDbEntity
  8
0
100
AcDbLine
 10
34.35540729891747
 20
-13.17438500974168
 30
0.0
 11
34.19110248611747
 21
-14.69823679534168
 31
0.0
  0
LINE
  5
220
330
2
100
AcDbEntity
  8
0
100
AcDbLine
 10
39.45476903811746
 20
-15.88262111534168
 30
0.0
 11
39.37479303651747
 21
-14.95947412974167
 31
0.0
  0
LINE
  5
221
330
2
100
AcDbEntity
  8
0
100
AcDbLine
 10
39.45476903811746
 20
-15.88262111534168
 30
0.0
 11
39.37479303651747
 21
-14.95947412974167
 31
0.0
  0
LINE
  5
222
330
2
100
AcDbEntity
  8
0
100
AcDbLine
 10
39.49953912291746
 20
-16.41185199854168
 30
0.0
 11
39.45476903811746
 21
-15.88262111534168
 31
0.0
  0
LINE
  5
223
330
2
100
AcDbEntity
  8
0
100
AcDbLine
 10
39.49953912291746
 20
-16.41185199854168
 30
0.0
 11
39.45476903811746
 21
-15.88262111534168
 31
0.0
  0
LINE
  5
224
330
2
100
AcDbEntity
  8
0
100
AcDbLine
 10
39.25045345731746
 20
-16.43321665614168
 30
0.0
 11
39.17728143331746
 21
-15.56806774894169
 31
0.0
  0
LINE
  5
225
330
2
100
AcDbEntity
  8
0
100
AcDbLine
 10
39.16636383971746
 20
-15.43945540174169
 30
0.0
 11
39.25045345731746
 21
-16.43321665614168
 31
0.0
  0
LINE
  5
226
330
2
100
AcDbEntity
  8
0
100
AcDbLine
 10
39.12570557891746
 20
-14.98081542254168
 30
0.0
 11
39.16636383971746
 21
-15.43945540174169
 31
0.0
  0
LINE
  5
227
330
2
100
AcDbEntity
  8
0
100
AcDbLine
 10
39.24701680291747
 20
-16.39216715374169
 30
0.0
 11
39.47824766211747
 21
-16.16093629614169
 31
0.0
  0
LINE
  5
228
330
2
100
AcDbEntity
  8
0
100
AcDbLine
 10
39.17728143331746
 20
-15.56806774894169
 30
0.0
 11
39.07545934051748
 21
-14.39669455534168
 31
0.0
  0
LINE
  5
229
330
2
100
AcDbEntity
  8
0
100
AcDbLine
 10
39.07545934051748
 20
-14.39669455534168
 30
0.0
 11
39.12570557891746
 21
-14.98081542254168
 31
0.0
  0
LINE
  5
22A
330
2
100
AcDbEntity
  8
0
100
AcDbLine
 10
34.92713876611748
 20
-12.72780187374168
 30
0.0
 11
38.74019032131747
 21
-12.82875688334168
 31
0.0
  0
LINE
  5
22B
330
2
100
AcDbEntity
  8
0
100
AcDbLine
 10
34.89226173571745
 20
-12.72794223534168
 30
0.0
 11
38.74498979651747
 21
-12.82927938254168
 31
0.0
  0
LINE
  5
22C
330
2
100
AcDbEntity
  8
0
100
AcDbLine
 10
34.89226173571745
 20
-12.72794223534168
 30
0.0
 11
38.74498979651747
 21
-12.82927938254168
 31
0.0
  0
LINE
  5
22D
330
2
100
AcDbEntity
  8
0
100
AcDbLine
 10
36.85985792131748
 20
-12.35753498574168
 30
0.0
 11
36.53413828131746
 21
-12.42169405774167
 31
0.0
  0
ARC
  5
22E
330
2
100
AcDbEntity
  8
0
100
AcDbCircle
 10
34.89797933643987
 20
-13.85097526474873
 30
0.0
 40
1.123551841907005
100
AcDbArc
 50
88.5128413339258
 51
93.54169628460736
  0
ARC
  5
22F
330
2
100
AcDbEntity
  8
0
100
AcDbCircle
 10
34.95511662051745
 20
-11.67108365294167
 30
0.0
 40
1.057088527999999
100
AcDbArc
 50
268.4833813695
 51
273.9612402614
  0
LINE
  5
230
330
2
100
AcDbEntity
  8
0
100
AcDbLine
 10
34.86582951011746
 20
-12.72830988814168
 30
0.0
 11
34.86595502051747
 21
-12.72826215374168
 31
0.0
  0
LWPOLYLINE
  5
231
330
2
100
AcDbEntity
  8
0
100
AcDbPolyline
 90
        4
 70
     0
 43
0.0
 10
34.79224772931746
 20
-12.73158513454166
 10
34.79077320291747
 20
-12.73191798094166
 10
34.78504594051747
 20
-12.73267562894167
 10
34.78183351811748
 20
-12.73312868014166
  0
LWPOLYLINE
  5
232
330
2
100
AcDbEntity
  8
0
100
AcDbPolyline
 90
        3
 70
     0
 43
0.0
 10
34.83276397091745
 20
-12.72668909294167
 10
34.79224772931746
 20
-12.73158513454166
 10
34.78331090851748
 20
-12.73292036974167
  0
LWPOLYLINE
  5
233
330
2
100
AcDbEntity
  8
0
100
AcDbPolyline
 90
        3
 70
     0
 43
0.0
 10
34.89305626691745
 20
-12.72419526414167
 10
34.88208620931746
 20
-12.72559925294167
 10
34.87415614051747
 20
-12.72684129134167
  0
LINE
  5
234
330
2
100
AcDbEntity
  8
0
100
AcDbLine
 10
34.91693335171746
 20
-12.71968366414168
 30
0.0
 11
34.89654454691745
 21
-12.72227533454167
 31
0.0
  0
LINE
  5
235
330
2
100
AcDbEntity
  8
0
100
AcDbLine
 10
34.78183351811748
 20
-12.73312868014167
 30
0.0
 11
34.77998188931747
 21
-12.73339945934168
 31
0.0
  0
LINE
  5
236
330
2
100
AcDbEntity
  8
0
100
AcDbLine
 10
34.86595502371747
 20
-12.72826215374168
 30
0.0
 11
34.86773158691747
 21
-12.72799776974167
 31
0.0
  0
LINE
  5
237
330
2
100
AcDbEntity
  8
0
100
AcDbLine
 10
34.77998188931747
 20
-12.73339945934168
 30
0.0
 11
34.77500799331747
 21
-12.73415951054168
 31
0.0
  0
LINE
  5
238
330
2
100
AcDbEntity
  8
0
100
AcDbLine
 10
34.78331090851748
 20
-12.73292036974167
 30
0.0
 11
34.77998188931747
 21
-12.73339945934168
 31
0.0
  0
LINE
  5
239
330
2
100
AcDbEntity
  8
0
100
AcDbLine
 10
34.77485842691746
 20
-12.73418301934168
 30
0.0
 11
34.76991280771747
 21
-12.73498951214168
 31
0.0
  0
LINE
  5
23A
330
2
100
AcDbEntity
  8
0
100
AcDbLine
 10
34.96181249411748
 20
-12.71219463534167
 30
0.0
 11
34.91693335171746
 21
-12.71968366414168
 31
0.0
  0
LINE
  5
23B
330
2
100
AcDbEntity
  8
0
100
AcDbLine
 10
34.76991280771747
 20
-12.73498951214168
 30
0.0
 11
34.76975316931745
 21
-12.73501649774168
 31
0.0
  0
LINE
  5
23C
330
2
100
AcDbEntity
  8
0
100
AcDbLine
 10
34.76975316931745
 20
-12.73501649774168
 30
0.0
 11
34.76444053571745
 21
-12.73594033454168
 31
0.0
  0
LINE
  5
23D
330
2
100
AcDbEntity
  8
0
100
AcDbLine
 10
34.76444053571745
 20
-12.73594033454168
 30
0.0
 11
34.76164761251746
 21
-12.73644835374168
 31
0.0
  0
LWPOLYLINE
  5
23E
330
2
100
AcDbEntity
  8
0
100
AcDbPolyline
 90
        4
 70
     0
 43
0.0
 10
35.23341875011746
 20
-12.66291072494167
 10
35.11647273251748
 20
-12.68405294254167
 10
35.02694422691746
 20
-12.70046144974167
 10
34.96181249411748
 20
-12.71219463534166
  0
LWPOLYLINE
  5
23F
330
2
100
AcDbEntity
  8
0
100
AcDbPolyline
 90
        3
 70
     0
 43
0.0
 10
34.87415614051747
 20
-12.72684129134167
 10
34.86903698051747
 20
-12.72778607054167
 10
34.86631882851748
 20
-12.72825665454167
  0
LINE
  5
240
330
2
100
AcDbEntity
  8
0
100
AcDbLine
 10
34.76429438211747
 20
-12.73596575054168
 30
0.0
 11
34.75706516131745
 21
-12.73731922254168
 31
0.0
  0
LINE
  5
241
330
2
100
AcDbEntity
  8
0
100
AcDbLine
 10
34.76164761251746
 20
-12.73644835374168
 30
0.0
 11
34.75672354371747
 21
-12.73738502254168
 31
0.0
  0
LINE
  5
242
330
2
100
AcDbEntity
  8
0
100
AcDbLine
 10
34.75672354371747
 20
-12.73738502254168
 30
0.0
 11
34.75363061571747
 21
-12.73799938574167
 31
0.0
  0
LINE
  5
243
330
2
100
AcDbEntity
  8
0
100
AcDbLine
 10
34.75706516131745
 20
-12.73731922254168
 30
0.0
 11
34.74570342051745
 21
-12.73966652654168
 31
0.0
  0
LINE
  5
244
330
2
100
AcDbEntity
  8
0
100
AcDbLine
 10
34.84675098051747
 20
-12.72774488654168
 30
0.0
 11
34.84337227491747
 21
-12.72784377134168
 31
0.0
  0
LINE
  5
245
330
2
100
AcDbEntity
  8
0
100
AcDbLine
 10
34.84337227491747
 20
-12.72784377134168
 30
0.0
 11
34.83994745091746
 21
-12.72796150094167
 31
0.0
  0
LINE
  5
246
330
2
100
AcDbEntity
  8
0
100
AcDbLine
 10
34.83994745091746
 20
-12.72796150094167
 30
0.0
 11
34.83659927011746
 21
-12.72809423694168
 31
0.0
  0
LINE
  5
247
330
2
100
AcDbEntity
  8
0
100
AcDbLine
 10
34.83659927011746
 20
-12.72809423694168
 30
0.0
 11
34.83375195971746
 21
-12.72822139854167
 31
0.0
  0
LINE
  5
248
330
2
100
AcDbEntity
  8
0
100
AcDbLine
 10
34.83375195971746
 20
-12.72822139854167
 30
0.0
 11
34.83017737891745
 21
-12.72840026894168
 31
0.0
  0
LINE
  5
249
330
2
100
AcDbEntity
  8
0
100
AcDbLine
 10
34.90177263331748
 20
-12.72198904494167
 30
0.0
 11
34.89688310531747
 21
-12.72222783534168
 31
0.0
  0
LINE
  5
24A
330
2
100
AcDbEntity
  8
0
100
AcDbLine
 10
34.89688310531747
 20
-12.72222783534168
 30
0.0
 11
34.89176271011746
 21
-12.72248513614168
 31
0.0
  0
LINE
  5
24B
330
2
100
AcDbEntity
  8
0
100
AcDbLine
 10
34.89688310531747
 20
-12.72222783534168
 30
0.0
 11
34.89198412611747
 21
-12.72247390254167
 31
0.0
  0
LINE
  5
24C
330
2
100
AcDbEntity
  8
0
100
AcDbLine
 10
34.93434083651746
 20
-12.72145782734168
 30
0.0
 11
34.92641698691747
 21
-12.72187874094167
 31
0.0
  0
LINE
  5
24D
330
2
100
AcDbEntity
  8
0
100
AcDbLine
 10
34.89654454691745
 20
-12.72227533454167
 30
0.0
 11
34.90184516611745
 21
-12.72198560974167
 31
0.0
  0
LINE
  5
24E
330
2
100
AcDbEntity
  8
0
100
AcDbLine
 10
34.83017737891745
 20
-12.72840026894168
 30
0.0
 11
34.82552217411748
 21
-12.72866631054168
 31
0.0
  0
LINE
  5
24F
330
2
100
AcDbEntity
  8
0
100
AcDbLine
 10
34.89177808611745
 20
-12.72248434734167
 30
0.0
 11
34.87108682051746
 21
-12.72364574254167
 31
0.0
  0
LINE
  5
250
330
2
100
AcDbEntity
  8
0
100
AcDbLine
 10
34.92641698691747
 20
-12.72187874094167
 30
0.0
 11
34.91354571971746
 21
-12.72264807694168
 31
0.0
  0
LINE
  5
251
330
2
100
AcDbEntity
  8
0
100
AcDbLine
 10
34.86785830371747
 20
-12.72799013134168
 30
0.0
 11
34.87138716931747
 21
-12.72777739214167
 31
0.0
  0
LINE
  5
252
330
2
100
AcDbEntity
  8
0
100
AcDbLine
 10
34.82552217411748
 20
-12.72866631054168
 30
0.0
 11
34.81913333571748
 21
-12.72909435214168
 31
0.0
  0
LINE
  5
253
330
2
100
AcDbEntity
  8
0
100
AcDbLine
 10
34.87108682051746
 20
-12.72364574254167
 30
0.0
 11
34.85183263491745
 21
-12.72498250734168
 31
0.0
  0
LINE
  5
254
330
2
100
AcDbEntity
  8
0
100
AcDbLine
 10
34.91354571971746
 20
-12.72264807694168
 30
0.0
 11
34.90109015011745
 21
-12.72341833454167
 31
0.0
  0
LWPOLYLINE
  5
255
330
2
100
AcDbEntity
  8
0
100
AcDbPolyline
 90
        5
 70
     0
 43
0.0
 10
34.81913333571748
 20
-12.72909435214168
 10
34.81492013091747
 20
-12.72941751054167
 10
34.80968698531745
 20
-12.72986510734167
 10
34.80356835171747
 20
-12.73045431694166
 10
34.79715627171745
 20
-12.73114848654167
  0
LINE
  5
256
330
2
100
AcDbEntity
  8
0
100
AcDbLine
 10
34.85183263491745
 20
-12.72498250734168
 30
0.0
 11
34.83268708771745
 21
-12.72669698414168
 31
0.0
  0
LINE
  5
257
330
2
100
AcDbEntity
  8
0
100
AcDbLine
 10
34.90109015011745
 20
-12.72341833454167
 30
0.0
 11
34.89305626691745
 21
-12.72419526414168
 31
0.0
  0
LINE
  5
258
330
2
100
AcDbEntity
  8
0
100
AcDbLine
 10
34.86631882531748
 20
-12.72825665454168
 30
0.0
 11
34.86582951011746
 21
-12.72830988814168
 31
0.0
  0
LINE
  5
259
330
2
100
AcDbEntity
  8
0
100
AcDbLine
 10
34.89063000131747
 20
-12.72786502894168
 30
0.0
 11
34.89226152611746
 21
-12.72794222894168
 31
0.0
  0
LINE
  5
25A
330
2
100
AcDbEntity
  8
0
100
AcDbLine
 10
34.88709085891747
 20
-12.72774873614167
 30
0.0
 11
34.89150618371747
 21
-12.72790648814168
 31
0.0
  0
LINE
  5
25B
330
2
100
AcDbEntity
  8
0
100
AcDbLine
 10
34.88709601251747
 20
-12.72774886734167
 30
0.0
 11
34.88351307331746
 21
-12.72766459854167
 31
0.0
  0
LINE
  5
25C
330
2
100
AcDbEntity
  8
0
100
AcDbLine
 10
34.88351307331746
 20
-12.72766459854167
 30
0.0
 11
34.88708847171747
 21
-12.72774867374168
 31
0.0
  0
LINE
  5
25D
330
2
100
AcDbEntity
  8
0
100
AcDbLine
 10
34.88351307331746
 20
-12.72766459854167
 30
0.0
 11
34.87536546531746
 21
-12.72753333934167
 31
0.0
  0
LINE
  5
25E
330
2
100
AcDbEntity
  8
0
100
AcDbLine
 10
34.87536546531746
 20
-12.72753333934167
 30
0.0
 11
34.87061391171747
 21
-12.72749503694167
 31
0.0
  0
LINE
  5
25F
330
2
100
AcDbEntity
  8
0
100
AcDbLine
 10
34.87061391171747
 20
-12.72749503694167
 30
0.0
 11
34.86708287971746
 21
-12.72748497134168
 31
0.0
  0
LINE
  5
260
330
2
100
AcDbEntity
  8
0
100
AcDbLine
 10
34.86684067651745
 20
-12.72748485934168
 30
0.0
 11
34.86671879491746
 21
-12.72748483214168
 31
0.0
  0
LINE
  5
261
330
2
100
AcDbEntity
  8
0
100
AcDbLine
 10
34.86696203491746
 20
-12.72748490574167
 30
0.0
 11
34.86361368931747
 21
-12.72749054254168
 31
0.0
  0
LINE
  5
262
330
2
100
AcDbEntity
  8
0
100
AcDbLine
 10
34.87622642851746
 20
-12.72766451694168
 30
0.0
 11
34.88153780931748
 21
-12.72765610254168
 31
0.0
  0
LINE
  5
263
330
2
100
AcDbEntity
  8
0
100
AcDbLine
 10
34.86361368931747
 20
-12.72749054254168
 30
0.0
 11
34.86019396931746
 21
-12.72751125774168
 31
0.0
  0
LINE
  5
264
330
2
100
AcDbEntity
  8
0
100
AcDbLine
 10
34.86019396931746
 20
-12.72751125774168
 30
0.0
 11
34.85679429251746
 21
-12.72754708814167
 31
0.0
  0
LINE
  5
265
330
2
100
AcDbEntity
  8
0
100
AcDbLine
 10
34.85679429251746
 20
-12.72754708814167
 30
0.0
 11
34.85331460931746
 21
-12.72759980174167
 31
0.0
  0
LINE
  5
266
330
2
100
AcDbEntity
  8
0
100
AcDbLine
 10
34.85331460931746
 20
-12.72759980174167
 30
0.0
 11
34.84995592771747
 21
-12.72766644334167
 31
0.0
  0
LINE
  5
267
330
2
100
AcDbEntity
  8
0
100
AcDbLine
 10
34.84995592771747
 20
-12.72766644334167
 30
0.0
 11
34.84675098051747
 21
-12.72774488654168
 31
0.0
  0
LINE
  5
268
330
2
100
AcDbEntity
  8
0
100
AcDbLine
 10
34.87138716931747
 20
-12.72777739214167
 30
0.0
 11
34.87622642851746
 21
-12.72766451694168
 31
0.0
  0
LWPOLYLINE
  5
269
330
2
100
AcDbEntity
  8
0
100
AcDbPolyline
 90
        6
 70
     0
 43
0.0
 10
36.53413828131746
 20
-12.42169405774166
 10
36.24478624931745
 20
-12.47795653774167
 10
35.98728243331746
 20
-12.52703707534167
 10
35.75815891811746
 20
-12.56953484974167
 10
35.55531823651747
 20
-12.60595343214166
 10
35.23341875011746
 20
-12.66291072494167
  0
LWPOLYLINE
  5
26C
330
2
100
AcDbEntity
  8
0
100
AcDbPolyline
 90
       24
 70
     0
 43
0.0
 10
34.74994827011747
 20
-12.73875719054166
 10
34.74548505411746
 20
-12.73971434414166
 10
34.73996937251746
 20
-12.74095614094167
 10
34.73305482851748
 20
-12.74260570894167
 10
34.72440762691746
 20
-12.74481558254167
 10
34.71378350851748
 20
-12.74775749614166
 10
34.70129808611747
 20
-12.75154049774168
 10
34.68736588931747
 20
-12.75618730414167
 10
34.67179259011746
 20
-12.76192869774167
 10
34.65394202851746
 20
-12.76924744334167
 10
34.63365469091746
 20
-12.77856927214167
 10
34.61149661571747
 20
-12.79004879534166
 10
34.58770776451746
 20
-12.80400442254167
 10
34.56212415971745
 20
-12.82109319214166
 10
34.53444441571747
 20
-12.84233550894168
 10
34.50620950691746
 20
-12.86746492174168
 10
34.47873506531746
 20
-12.89602179534167
 10
34.45257758371747
 20
-12.92803358894168
 10
34.42829339171746
 20
-12.96347119214167
 10
34.40644850691745
 20
-13.00222433774167
 10
34.38760317091746
 20
-13.04410269134167
 10
34.37229928291748
 20
-13.08883808494167
 10
34.36105263811745
 20
-13.13607371054167
 10
34.35540217091747
 20
-13.17438449774167
  0
ARC
  5
26D
330
2
100
AcDbEntity
  8
0
100
AcDbCircle
 10
38.73183645411748
 20
-13.32910634254167
 30
0.0
 40
0.25
100
AcDbArc
 50
4.984754711799999
 51
88.4925642412
  0
ARC
  5
26E
330
2
100
AcDbEntity
  8
0
100
AcDbCircle
 10
38.73183645411748
 20
-13.32910634254167
 30
0.0
 40
0.5
100
AcDbArc
 50
4.984754280199999
 51
88.4925642123
  0
ARC
  5
26F
330
2
100
AcDbEntity
  8
0
100
AcDbCircle
 10
38.73183645411748
 20
-13.32910634254167
 30
0.0
 40
0.5
100
AcDbArc
 50
4.984754280199999
 51
88.4925642123
  0
ARC
  5
270
330
2
100
AcDbEntity
  8
0
100
AcDbCircle
 10
38.73183645411748
 20
-13.32910634254167
 30
0.0
 40
0.25
100
AcDbArc
 50
4.984754711799999
 51
88.4925642412
  0
ARC
  5
271
330
2
100
AcDbEntity
  8
0
100
AcDbCircle
 10
38.72614412611747
 20
-13.35927898894168
 30
0.0
 40
0.530708016
100
AcDbArc
 50
8.8998699809
 51
88.48338136949999
  0
LINE
  5
272
330
2
100
AcDbEntity
  8
0
100
AcDbLine
 10
39.38773128291746
 20
-12.60156253934168
 30
0.0
 11
39.28370680611746
 21
-12.63495248494167
 31
0.0
  0
LINE
  5
273
330
2
100
AcDbEntity
  8
0
100
AcDbLine
 10
39.28370680611746
 20
-12.63495248494167
 30
0.0
 11
39.18770619331747
 21
-12.66633272974168
 31
0.0
  0
LINE
  5
274
330
2
100
AcDbEntity
  8
0
100
AcDbLine
 10
39.18770619331747
 20
-12.66633272974168
 30
0.0
 11
39.09949062531746
 21
-12.69563489134168
 31
0.0
  0
LINE
  5
275
330
2
100
AcDbEntity
  8
0
100
AcDbLine
 10
39.09949062531746
 20
-12.69563489134168
 30
0.0
 11
38.88199242371746
 21
-12.76893314414168
 31
0.0
  0
LINE
  5
276
330
2
100
AcDbEntity
  8
0
100
AcDbLine
 10
38.88199242371746
 20
-12.76893314414168
 30
0.0
 11
38.85426854851747
 21
-12.77851755854167
 31
0.0
  0
LINE
  5
277
330
2
100
AcDbEntity
  8
0
100
AcDbLine
 10
38.85537440611747
 20
-12.77812963854168
 30
0.0
 11
38.82905643331747
 21
-12.78750955214168
 31
0.0
  0
LINE
  5
278
330
2
100
AcDbEntity
  8
0
100
AcDbLine
 10
38.83105942531747
 20
-12.78678394094167
 30
0.0
 11
38.80645595971748
 21
-12.79585852974167
 31
0.0
  0
LINE
  5
279
330
2
100
AcDbEntity
  8
0
100
AcDbLine
 10
39.29041858051746
 20
-13.98094938094168
 30
0.0
 11
39.22994538211748
 21
-13.28566100974168
 31
0.0
  0
LINE
  5
27A
330
2
100
AcDbEntity
  8
0
100
AcDbLine
 10
39.29041858051746
 20
-13.98094938094168
 30
0.0
 11
39.22994538211748
 21
-13.28566100974168
 31
0.0
  0
LINE
  5
27B
330
2
100
AcDbEntity
  8
0
100
AcDbLine
 10
38.80913453091747
 20
-12.79485193774168
 30
0.0
 11
38.78658485571747
 21
-12.80350525934167
 31
0.0
  0
LINE
  5
27C
330
2
100
AcDbEntity
  8
0
100
AcDbLine
 10
38.78970220451748
 20
-12.80228214254168
 30
0.0
 11
38.76957185251745
 21
-12.81038398894168
 31
0.0
  0
LWPOLYLINE
  5
27D
330
2
100
AcDbEntity
  8
0
100
AcDbPolyline
 90
        8
 70
     0
 43
0.0
 10
38.77287424611748
 20
-12.80901751854167
 10
38.75877209731746
 20
-12.81499547534166
 10
38.74754758531747
 20
-12.82013535374167
 10
38.73925520291746
 20
-12.82440459214166
 10
38.73390915331748
 20
-12.82778347854167
 10
38.73188247491748
 20
-12.83012629134167
 10
38.73330721091747
 20
-12.83131078894167
 10
38.73487235971746
 20
-12.83146041294167
  0
LINE
  5
27E
330
2
100
AcDbEntity
  8
0
100
AcDbLine
 10
38.76957185251745
 20
-12.81038398894168
 30
0.0
 11
38.75555740771747
 21
-12.81642182734168
 31
0.0
  0
LINE
  5
27F
330
2
100
AcDbEntity
  8
0
100
AcDbLine
 10
38.75555740771747
 20
-12.81642182734168
 30
0.0
 11
38.74470282691746
 21
-12.82153254894167
 31
0.0
  0
LINE
  5
280
330
2
100
AcDbEntity
  8
0
100
AcDbLine
 10
38.74470282691746
 20
-12.82153254894167
 30
0.0
 11
38.73704699651748
 21
-12.82568641134167
 31
0.0
  0
LINE
  5
281
330
2
100
AcDbEntity
  8
0
100
AcDbLine
 10
38.73704699651748
 20
-12.82568641134167
 30
0.0
 11
38.73270433891747
 21
-12.82883109454168
 31
0.0
  0
LWPOLYLINE
  5
282
330
2
100
AcDbEntity
  8
0
100
AcDbPolyline
 90
        3
 70
     0
 43
0.0
 10
38.73270433891747
 20
-12.82883109454167
 10
38.73208805891747
 20
-12.83078672174166
 10
38.73488298371748
 20
-12.83146069614167
  0
LINE
  5
283
330
2
100
AcDbEntity
  8
0
100
AcDbLine
 10
38.74090351171748
 20
-12.83101073774167
 30
0.0
 11
38.74805143331747
 21
-12.82985942734167
 31
0.0
  0
LINE
  5
284
330
2
100
AcDbEntity
  8
0
100
AcDbLine
 10
38.75661089251747
 20
-12.82829640974168
 30
0.0
 11
38.76508438531746
 21
-12.82678969454167
 31
0.0
  0
LINE
  5
285
330
2
100
AcDbEntity
  8
0
100
AcDbLine
 10
38.74805143331747
 20
-12.82985942734167
 30
0.0
 11
38.75961548451746
 21
-12.82776019534168
 31
0.0
  0
LINE
  5
286
330
2
100
AcDbEntity
  8
0
100
AcDbLine
 10
38.76497962051746
 20
-12.82681746894168
 30
0.0
 11
38.76508643491746
 21
-12.82678974734167
 31
0.0
  0
LINE
  5
287
330
2
100
AcDbEntity
  8
0
100
AcDbLine
 10
38.73490278691747
 20
-12.83145947534167
 30
0.0
 11
38.74090351171748
 21
-12.83101073774167
 31
0.0
  0
LINE
  5
288
330
2
100
AcDbEntity
  8
0
100
AcDbLine
 10
38.76508636931745
 20
-12.82678974574167
 30
0.0
 11
38.76505906051747
 21
-12.82679238094168
 31
0.0
  0
LINE
  5
289
330
2
100
AcDbEntity
  8
0
100
AcDbLine
 10
38.76505906051747
 20
-12.82679238094168
 30
0.0
 11
38.76450917411748
 21
-12.82685088814167
 31
0.0
  0
LINE
  5
28A
330
2
100
AcDbEntity
  8
0
100
AcDbLine
 10
38.76441667171746
 20
-12.82686073134168
 30
0.0
 11
38.75189106211746
 21
-12.82839148014167
 31
0.0
  0
LINE
  5
28B
330
2
100
AcDbEntity
  8
0
100
AcDbLine
 10
38.75218861411747
 20
-12.82835509294167
 30
0.0
 11
38.74691976771746
 21
-12.82902482734168
 31
0.0
  0
LINE
  5
28C
330
2
100
AcDbEntity
  8
0
100
AcDbLine
 10
38.74691976771746
 20
-12.82902482734168
 30
0.0
 11
38.74498935811746
 21
-12.82927937134168
 31
0.0
  0
LWPOLYLINE
  5
28D
330
2
100
AcDbEntity
  8
0
100
AcDbPolyline
 90
        4
 70
     0
 43
0.0
 10
38.73487476931746
 20
-12.83146047694168
 10
38.73772798371746
 20
-12.83135850574167
 10
38.74413177891748
 20
-12.83053323374167
 10
38.75091249731747
 20
-12.82933419694168
  0
LINE
  5
28E
330
2
100
AcDbEntity
  8
0
100
AcDbLine
 10
46.48475784291747
 20
-13.77071651054167
 30
0.0
 11
46.40933470211746
 21
-14.71601919054168
 31
0.0
  0
LWPOLYLINE
  5
28F
330
2
100
AcDbEntity
  8
0
100
AcDbPolyline
 90
        3
 70
     0
 43
0.0
 10
46.36003389251746
 20
-14.69984810894167
 10
46.52873529251746
 20
-12.57520824174167
 10
46.58491064611746
 20
-11.85373812814168
  0
LINE
  5
290
330
2
100
AcDbEntity
  8
0
100
AcDbLine
 10
46.36003386851746
 20
-14.69984816494168
 30
0.0
 11
46.36649584771745
 21
-14.71601924654167
 31
0.0
  0
LINE
  5
291
330
2
100
AcDbEntity
  8
0
100
AcDbLine
 10
50.38306706691748
 20
-11.75524233934168
 30
0.0
 11
50.25183558211748
 21
-14.71601919054168
 31
0.0
  0
LWPOLYLINE
  5
292
330
2
100
AcDbEntity
  8
0
100
AcDbPolyline
 90
        3
 70
     0
 43
0.0
 10
50.22433073091747
 20
-14.70006208334167
 10
50.32280360611747
 20
-12.48881687534167
 10
50.35560713411746
 20
-11.73861325614167
  0
LINE
  5
293
330
2
100
AcDbEntity
  8
0
100
AcDbLine
 10
50.22433071491747
 20
-14.70006215054168
 30
0.0
 11
50.22794441091747
 21
-14.71601925774167
 31
0.0
  0
LWPOLYLINE
  5
294
330
2
100
AcDbEntity
  8
0
  6
HIDDEN
100
AcDbPolyline
 90
       38
 70
     0
 43
0.0
 10
66.85671201411747
 20
-25.02446566574167
 10
66.90379157251746
 20
-24.53692622094168
 10
66.94921514851748
 20
-24.05035759534168
 10
66.97780815811748
 20
-23.73121091694167
 10
67.00455651491748
 20
-23.41912984654168
 10
67.02905308451747
 20
-23.11644367534167
 10
67.04571978211745
 20
-22.89691078414168
 10
67.06082060771746
 20
-22.68444613934168
 10
67.07427434051746
 20
-22.47977736654168
 10
67.08595581251748
 20
-22.28464904654168
 10
67.09173007331748
 20
-22.18126818574167
 10
67.09750184931746
 20
-22.08265412334167
 10
67.10385742371747
 20
-21.99001366734167
 10
67.10934360611748
 20
-21.92511795054168
 10
67.11563749571746
 20
-21.86440121294168
 10
67.12288862851747
 20
-21.80800344974167
 10
67.13124654211748
 20
-21.75606465934168
 10
67.13998438851746
 20
-21.71238535534168
 10
67.14969210851748
 20
-21.67233271534168
 10
67.17166465571748
 20
-21.60212201614168
 10
67.19645913251747
 20
-21.54346173294168
 10
67.21651868611747
 20
-21.50589188014168
 10
67.23768715491747
 20
-21.47306497774168
 10
67.25988270531747
 20
-21.44433545774167
 10
67.28302350691746
 20
-21.41905775854167
 10
67.31868050531748
 20
-21.38728331854167
 10
67.35929475331747
 20
-21.35996790254167
 10
67.40800551651748
 20
-21.33566179854168
 10
67.46761188611748
 20
-21.31321902254168
 10
67.53955225091747
 20
-21.29270851854168
 10
67.62492482371746
 20
-21.27450295854168
 10
67.72610695491747
 20
-21.25862667054168
 10
67.83996216451746
 20
-21.24528377614167
 10
67.96412507331746
 20
-21.23423643534168
 10
68.09623030531748
 20
-21.22524680654167
 10
68.28104993571748
 20
-21.21596837294168
 10
68.47265473571747
 20
-21.20886911054167
 10
68.93009741091749
 20
-21.19484610734168
  0
LWPOLYLINE
  5
295
330
2
100
AcDbEntity
  8
0
  6
HIDDEN
100
AcDbPolyline
 90
       38
 70
     0
 43
0.0
 10
68.93009741091749
 20
-21.19484610734168
 10
68.47265473571747
 20
-21.20886911054167
 10
68.28104993571748
 20
-21.21596837294168
 10
68.09623030531748
 20
-21.22524680654167
 10
67.96412507331746
 20
-21.23423643534168
 10
67.83996216451746
 20
-21.24528377614167
 10
67.72610695491747
 20
-21.25862667054168
 10
67.62492482371746
 20
-21.27450295854168
 10
67.53955225091747
 20
-21.29270851854168
 10
67.46761188611748
 20
-21.31321902254168
 10
67.40800551651748
 20
-21.33566179854168
 10
67.35929475331747
 20
-21.35996790254167
 10
67.31868050531748
 20
-21.38728331854167
 10
67.28302350691746
 20
-21.41905775854167
 10
67.25988270531747
 20
-21.44433545774167
 10
67.23768715491747
 20
-21.47306497774168
 10
67.21651868611747
 20
-21.50589188014168
 10
67.19645913251747
 20
-21.54346173294168
 10
67.17166465571748
 20
-21.60212201614168
 10
67.14969210851748
 20
-21.67233271534168
 10
67.13998438851746
 20
-21.71238535534168
 10
67.13124654211748
 20
-21.75606465934168
 10
67.12288862851747
 20
-21.80800344974167
 10
67.11563749571746
 20
-21.86440121294168
 10
67.10934360611748
 20
-21.92511795054168
 10
67.10385742371747
 20
-21.99001366734167
 10
67.09750184931746
 20
-22.08265412334167
 10
67.09173007331748
 20
-22.18126818574167
 10
67.08595581251748
 20
-22.28464904654168
 10
67.07427434051746
 20
-22.47977736654168
 10
67.06082060771746
 20
-22.68444613934168
 10
67.04571978211745
 20
-22.89691078414168
 10
67.02905308451747
 20
-23.11644367534167
 10
67.00455651491748
 20
-23.41912984654168
 10
66.97780815811748
 20
-23.73121091694167
 10
66.94921514851748
 20
-24.05035759534168
 10
66.90379157251746
 20
-24.53692622094168
 10
66.85671201411747
 20
-25.02446566574167
  0
LWPOLYLINE
  5
296
330
2
100
AcDbEntity
  8
0
  6
HIDDEN
100
AcDbPolyline
 90
       32
 70
     0
 43
0.0
 10
68.46438857731746
 20
-20.95902718094168
 10
68.27036138371747
 20
-20.96623686734167
 10
68.08153308771747
 20
-20.97567905614167
 10
67.94521726531747
 20
-20.98486704494168
 10
67.81514393091746
 20
-20.99640556334168
 10
67.69290756131747
 20
-21.01079944974168
 10
67.58010262691747
 20
-21.02855355214168
 10
67.47956153251746
 20
-21.04983008654168
 10
67.38881902691748
 20
-21.07568564174167
 10
67.30702026531748
 20
-21.10696475214167
 10
67.23331040771748
 20
-21.14451195214167
 10
67.16683461251747
 20
-21.18917177294167
 10
67.10673803491747
 20
-21.24178875374167
 10
67.05656396611747
 20
-21.29787014094168
 10
67.01132897731747
 20
-21.36200045774168
 10
66.97130777411747
 20
-21.43479714254168
 10
66.93677506531748
 20
-21.51687763214167
 10
66.90800555651748
 20
-21.60885936654167
 10
66.88527395971746
 20
-21.71135978254167
 10
66.86727582211748
 20
-21.83535204974167
 10
66.85458324131747
 20
-21.97095299534167
 10
66.84500593251747
 20
-22.11654785454168
 10
66.83635361571745
 20
-22.27052185774167
 10
66.82474957251748
 20
-22.46445538254167
 10
66.81140387651746
 20
-22.66735733134167
 10
66.79639766691747
 20
-22.87845129134167
 10
66.77981208611746
 20
-23.09696085294167
 10
66.75541661731748
 20
-23.39842645934167
 10
66.72876112451746
 20
-23.70941122574168
 10
66.70024910851748
 20
-24.02763130094168
 10
66.65491871651747
 20
-24.51319177614168
 10
66.60789659491746
 20
-25.00014550894167
  0
LWPOLYLINE
  5
297
330
2
100
AcDbEntity
  8
0
  6
HIDDEN
100
AcDbPolyline
 90
       32
 70
     0
 43
0.0
 10
68.46438857731746
 20
-20.95902718094168
 10
68.27036138371747
 20
-20.96623686734167
 10
68.08153308771747
 20
-20.97567905614167
 10
67.94521726531747
 20
-20.98486704494168
 10
67.81514393091746
 20
-20.99640556334168
 10
67.69290756131747
 20
-21.01079944974168
 10
67.58010262691747
 20
-21.02855355214168
 10
67.47956153251746
 20
-21.04983008654168
 10
67.38881902691748
 20
-21.07568564174167
 10
67.30702026531748
 20
-21.10696475214167
 10
67.23331040771748
 20
-21.14451195214167
 10
67.16683461251747
 20
-21.18917177294167
 10
67.10673803491747
 20
-21.24178875374167
 10
67.05656396611747
 20
-21.29787014094168
 10
67.01132897731747
 20
-21.36200045774168
 10
66.97130777411747
 20
-21.43479714254168
 10
66.93677506531748
 20
-21.51687763214167
 10
66.90800555651748
 20
-21.60885936654167
 10
66.88527395971746
 20
-21.71135978254167
 10
66.86727582211748
 20
-21.83535204974167
 10
66.85458324131747
 20
-21.97095299534167
 10
66.84500593251747
 20
-22.11654785454168
 10
66.83635361571745
 20
-22.27052185774167
 10
66.82474957251748
 20
-22.46445538254167
 10
66.81140387651746
 20
-22.66735733134167
 10
66.79639766691747
 20
-22.87845129134167
 10
66.77981208611746
 20
-23.09696085294167
 10
66.75541661731748
 20
-23.39842645934167
 10
66.72876112451746
 20
-23.70941122574168
 10
66.70024910851748
 20
-24.02763130094168
 10
66.65491871651747
 20
-24.51319177614168
 10
66.60789659491746
 20
-25.00014550894167
  0
LWPOLYLINE
  5
298
330
2
100
AcDbEntity
  8
0
100
AcDbPolyline
 90
       19
 70
     0
 43
0.0
 10
75.36645146531748
 20
-14.71601919054168
 10
75.17160538371746
 20
-15.71041388014167
 10
74.98610579491748
 20
-16.72434551854168
 10
74.80996768931746
 20
-17.73994526414168
 10
74.64320605891746
 20
-18.75712667214168
 10
74.48583589731746
 20
-19.77580329774168
 10
74.35294278211748
 20
-20.68887703054168
 10
74.22759538211747
 20
-21.60301721614168
 10
74.10980194851745
 20
-22.51816144494168
 10
73.99957052771748
 20
-23.43424729134167
 10
73.89690837571746
 20
-24.35121224174167
 10
73.80182254051746
 20
-25.26899376014168
 10
73.73548426531747
 20
-25.95782814414167
 10
73.67341400451747
 20
-26.64706022414168
 10
73.61561409251746
 20
-27.33666354894168
 10
73.56208672771746
 20
-28.02661165934168
 10
73.51283401411746
 20
-28.71687809134167
 10
73.46785779651748
 20
-29.40743635534168
 10
73.42245472771748
 20
-30.18315367854167
  0
LWPOLYLINE
  5
299
330
2
100
AcDbEntity
  8
0
100
AcDbPolyline
 90
       47
 70
     0
 43
0.0
 10
71.16542071811747
 20
-13.29461458734167
 10
71.11047839811746
 20
-14.03978967214167
 10
71.06251854211746
 20
-14.78683040974167
 10
71.01991761571747
 20
-15.51747812814167
 10
70.98105208131747
 20
-16.26682134254167
 10
70.94429840451747
 20
-17.01660138094168
 10
70.90803304771748
 20
-17.76634196814168
 10
70.86120794051746
 20
-18.69714244974167
 10
70.80951577571747
 20
-19.62623307054168
 10
70.79637556611746
 20
-19.84025084174168
 10
70.78156554851748
 20
-20.05480322254168
 10
70.77048016931747
 20
-20.19387975374167
 10
70.75754488131747
 20
-20.33313794574168
 10
70.74212563971747
 20
-20.47225533294168
 10
70.72358839011747
 20
-20.61090945454167
 10
70.70129908771747
 20
-20.74877784494167
 10
70.67462367971748
 20
-20.88553804014168
 10
70.64292811811748
 20
-21.02086758094167
 10
70.60557835331747
 20
-21.15444399854168
 10
70.56194033731748
 20
-21.28594483214168
 10
70.51138001731747
 20
-21.41504761934168
 10
70.46176929251746
 20
-21.52397006414167
 10
70.40603923011747
 20
-21.62988821134168
 10
70.34367865411747
 20
-21.73181686254167
 10
70.28140253251746
 20
-21.81975977454168
 10
70.21385523491748
 20
-21.90383251374167
 10
70.14158849251746
 20
-21.98422096974167
 10
70.06515403491746
 20
-22.06111102894168
 10
69.98510359171746
 20
-22.13468858574167
 10
69.90198889411747
 20
-22.20513952654167
 10
69.81636167171746
 20
-22.27264974094168
 10
69.72877365251747
 20
-22.33740512014168
 10
69.58052514051747
 20
-22.43902327854168
 10
69.42874203811746
 20
-22.53407430734167
 10
69.27375423011747
 20
-22.62303662254167
 10
69.11589159971746
 20
-22.70638863534168
 10
68.95548403011748
 20
-22.78460875854168
 10
68.74688531811748
 20
-22.87815844174168
 10
68.53549050531748
 20
-22.96570719374167
 10
68.32213656291748
 20
-23.04888659534167
 10
68.10766046851748
 20
-23.12932822894168
 10
67.77453104771746
 20
-23.25197174254167
 10
67.44185444291748
 20
-23.37513523854167
 10
67.11076902691747
 20
-23.50199792654167
 10
66.86323305091747
 20
-23.60187940654167
 10
66.61773021571747
 20
-23.70701686574168
 10
66.37474637411748
 20
-23.81876716814167
  0
LWPOLYLINE
  5
29A
330
2
100
AcDbEntity
  8
0
100
AcDbPolyline
 90
       13
 70
     0
 43
0.0
 10
66.76444382691747
 20
-25.96073611374168
 10
66.73992389411748
 20
-26.21158166894167
 10
66.71657736771746
 20
-26.45289728654168
 10
66.69427885731747
 20
-26.68600219694168
 10
66.67290297571748
 20
-26.91221563214168
 10
66.64560553091746
 20
-27.20553660974168
 10
66.61933971651746
 20
-27.49293633934168
 10
66.59371984931746
 20
-27.77839978254167
 10
66.57203840131746
 20
-28.02390359854168
 10
66.55024946691748
 20
-28.27396430254168
 10
66.52805550851747
 20
-28.53164278574168
 10
66.50515898691748
 20
-28.79999994094168
 10
66.36834897251748
 20
-30.42274589774168
  0
LWPOLYLINE
  5
29B
330
2
100
AcDbEntity
  8
0
100
AcDbPolyline
 90
       13
 70
     0
 43
0.0
 10
66.51563994211747
 20
-25.93629592814168
 10
66.49110164131747
 20
-26.18732844334167
 10
66.46773015171746
 20
-26.42890060174168
 10
66.44540259331748
 20
-26.66230675054168
 10
66.42399608771748
 20
-26.88884123694168
 10
66.39665880451747
 20
-27.18258665454168
 10
66.37035537411748
 20
-27.47039419534167
 10
66.34470067171747
 20
-27.75624120654168
 10
66.32299213251747
 20
-28.00204713774167
 10
66.30117919491747
 20
-28.25237769454167
 10
66.27896497251746
 20
-28.51028477294168
 10
66.25605257731746
 20
-28.77882026094168
 10
66.11922578371746
 20
-30.40171518574168
  0
LWPOLYLINE
  5
29C
330
2
100
AcDbEntity
  8
0
100
AcDbPolyline
 90
       13
 70
     0
 43
0.0
 10
66.51563994211747
 20
-25.93629592814168
 10
66.49110164131747
 20
-26.18732844334167
 10
66.46773015171746
 20
-26.42890060174168
 10
66.44540259331748
 20
-26.66230675054168
 10
66.42399608771748
 20
-26.88884123694168
 10
66.39665880451747
 20
-27.18258665454168
 10
66.37035537411748
 20
-27.47039419534167
 10
66.34470067171747
 20
-27.75624120654168
 10
66.32299213251747
 20
-28.00204713774167
 10
66.30117919491747
 20
-28.25237769454167
 10
66.27896497251746
 20
-28.51028477294168
 10
66.25605257731746
 20
-28.77882026094168
 10
66.11922578371746
 20
-30.40171518574168
  0
LWPOLYLINE
  5
29D
330
2
100
AcDbEntity
  8
0
100
AcDbPolyline
 90
       13
 70
     0
 43
0.0
 10
66.47299728931748
 20
-29.17996785454167
 10
66.50515898691748
 20
-28.79999994094168
 10
66.52805550851747
 20
-28.53164278574168
 10
66.55024946691748
 20
-28.27396430254168
 10
66.57203840131746
 20
-28.02390359854168
 10
66.59371984931746
 20
-27.77839978254167
 10
66.61933971651746
 20
-27.49293633934168
 10
66.64560553091746
 20
-27.20553660974168
 10
66.67290297571748
 20
-26.91221563214168
 10
66.69427885731747
 20
-26.68600219694168
 10
66.71657736771746
 20
-26.45289728654168
 10
66.73992389411748
 20
-26.21158166894167
 10
66.76444382691747
 20
-25.96073611374168
  0
LINE
  5
29E
330
2
100
AcDbEntity
  8
0
100
AcDbLine
 10
66.36834897251748
 20
-30.42274589774168
 30
0.0
 11
66.31548452771747
 21
-31.04751290254168
 31
0.0
  0
LINE
  5
29F
330
2
100
AcDbEntity
  8
0
100
AcDbLine
 10
66.11922578371746
 20
-30.40171518574168
 30
0.0
 11
66.06636993251746
 21
-31.02636141934169
 31
0.0
  0
LINE
  5
2A0
330
2
100
AcDbEntity
  8
0
100
AcDbLine
 10
66.11922578371746
 20
-30.40171518574168
 30
0.0
 11
66.06636993251746
 21
-31.02636141934169
 31
0.0
  0
LINE
  5
2A1
330
2
100
AcDbEntity
  8
0
100
AcDbLine
 10
66.31548452771747
 20
-31.04751290254168
 30
0.0
 11
66.47299728931748
 21
-29.17996785454168
 31
0.0
  0
LINE
  5
2A2
330
2
100
AcDbEntity
  8
0
100
AcDbLine
 10
66.34465967171746
 20
-27.76113318254168
 30
0.0
 11
66.62026819491746
 21
-27.48552465934168
 31
0.0
  0
LINE
  5
2A3
330
2
100
AcDbEntity
  8
0
  6
HIDDEN
100
AcDbLine
 10
66.76444382691747
 20
-25.96073611374169
 30
0.0
 11
66.85671201411747
 21
-25.02446566574168
 31
0.0
  0
LINE
  5
2A4
330
2
100
AcDbEntity
  8
0
  6
HIDDEN
100
AcDbLine
 10
66.85671201411747
 20
-25.02446566574168
 30
0.0
 11
66.76444382691747
 21
-25.96073611374169
 31
0.0
  0
LINE
  5
2A5
330
2
100
AcDbEntity
  8
0
  6
HIDDEN
100
AcDbLine
 10
66.60789659491746
 20
-25.00014550894168
 30
0.0
 11
66.51563994211747
 21
-25.93629592814169
 31
0.0
  0
LINE
  5
2A6
330
2
100
AcDbEntity
  8
0
  6
HIDDEN
100
AcDbLine
 10
66.60789659491746
 20
-25.00014550894168
 30
0.0
 11
66.51563994211747
 21
-25.93629592814169
 31
0.0
  0
LINE
  5
2A7
330
2
100
AcDbEntity
  8
0
100
AcDbLine
 10
75.33344892451748
 20
-12.73186398254168
 30
0.0
 11
71.61711687011745
 21
-12.82678979054168
 31
0.0
  0
LINE
  5
2A8
330
2
100
AcDbEntity
  8
0
100
AcDbLine
 10
75.48802678691746
 20
-12.72794223534168
 30
0.0
 11
71.63721517731747
 21
-12.82927938254168
 31
0.0
  0
LINE
  5
2A9
330
2
100
AcDbEntity
  8
0
100
AcDbLine
 10
75.48802678691746
 20
-12.72794223534168
 30
0.0
 11
71.63721517731747
 21
-12.82927938254168
 31
0.0
  0
LINE
  5
2AA
330
2
100
AcDbEntity
  8
0
100
AcDbLine
 10
71.64732280131747
 20
-12.83146067534167
 30
0.0
 11
75.51444346211747
 21
-12.72831030414168
 31
0.0
  0
LWPOLYLINE
  5
2AB
330
2
100
AcDbEntity
  8
0
  6
HIDDEN
100
AcDbPolyline
 90
      110
 70
     0
 43
0.0
 10
70.86401424611747
 20
-16.33296503214168
 10
70.74323198851747
 20
-16.38472899694167
 10
70.62231145251747
 20
-16.43414560974167
 10
70.50122771331746
 20
-16.48142737294168
 10
70.37995584771747
 20
-16.52678679374167
 10
70.25847093251747
 20
-16.57043637614168
 10
70.13674804611747
 20
-16.61258862734167
 10
70.01476226371747
 20
-16.65345604974167
 10
69.89248866371747
 20
-16.69325114894168
 10
69.76990231971746
 20
-16.73218643214167
 10
69.55527453091747
 20
-16.79867122894168
 10
69.33948735171748
 20
-16.86431438414167
 10
69.12240855491749
 20
-16.93024334894167
 10
69.07112702051747
 20
-16.94587609454167
 10
69.01975354051749
 20
-16.96133989134168
 10
68.96827499971746
 20
-16.97638754734167
 10
68.91667827971748
 20
-16.99077186574167
 10
68.86495026691747
 20
-17.00424565774167
 10
68.81307784451746
 20
-17.01656172814168
 10
68.76104789571747
 20
-17.02747288654167
 10
68.70884730531748
 20
-17.03673193774167
 10
68.65646295811746
 20
-17.04409169134167
 10
68.60388173731746
 20
-17.04930495214168
 10
68.55109052611746
 20
-17.05212452814167
 10
68.49412609251746
 20
-17.05242621134168
 10
68.43702502531747
 20
-17.05070605454167
 10
68.37990840931746
 20
-17.04799275694168
 10
68.30818355971747
 20
-17.04453617294167
 10
68.23650995651746
 20
-17.04186068654168
 10
68.16477194211748
 20
-17.04069115374167
 10
68.09285385571747
 20
-17.04175244014168
 10
68.05858779491746
 20
-17.04327849614168
 10
68.02436314371746
 20
-17.04572697614167
 10
67.99028815011746
 20
-17.04935231694167
 10
67.95647105891745
 20
-17.05440895374168
 10
67.92302011811748
 20
-17.06115132334167
 10
67.89004357411747
 20
-17.06983386414168
 10
67.85651691011747
 20
-17.08107215534167
 10
67.82372691011747
 20
-17.09454879694168
 10
67.79178574051747
 20
-17.11014986734167
 10
67.76080556611749
 20
-17.12776144654168
 10
67.73089855171747
 20
-17.14726961294168
 10
67.70217686051748
 20
-17.16856044974167
 10
67.67475265891746
 20
-17.19152003374168
 10
67.64568342371745
 20
-17.21909765294168
 10
67.61845584931748
 20
-17.24848964334168
 10
67.59314099011746
 20
-17.27955742574168
 10
67.56980990531747
 20
-17.31216242094167
 10
67.54853364931747
 20
-17.34616604974168
 10
67.52938327971747
 20
-17.38142973454168
 10
67.51242985251747
 20
-17.41781489614167
 10
67.49774442691748
 20
-17.45518295694168
 10
67.48539805731747
 20
-17.49339533774168
 10
67.47481030051748
 20
-17.53522046254168
 10
67.46702328131746
 20
-17.57763704334168
 10
67.46205623011746
 20
-17.62042203854167
 10
67.45992837571748
 20
-17.66335241454167
 10
67.46065895331748
 20
-17.70620512814168
 10
67.46426718851748
 20
-17.74875714094167
 10
67.47077231651747
 20
-17.79078541614168
 10
67.48010389251746
 20
-17.83200180014168
 10
67.49200002531748
 20
-17.87255353294168
 10
67.50612554691747
 20
-17.91251854414167
 10
67.52214528931748
 20
-17.95197476174168
 10
67.53972408611748
 20
-17.99100011374167
 10
67.55852676611747
 20
-18.02967252814168
 10
67.57095051651749
 20
-18.05386907534168
 10
67.58410181731747
 20
-18.07756823214168
 10
67.59835411331747
 20
-18.10038218254168
 10
67.61408084931748
 20
-18.12192311534167
 10
67.63165547331746
 20
-18.14180321294168
 10
67.64843124291747
 20
-18.15731161614167
 10
67.66661061891747
 20
-18.17138719534168
 10
67.68595846371747
 20
-18.18410848494168
 10
67.70623963651747
 20
-18.19555401454167
 10
67.72721899811748
 20
-18.20580231534167
 10
67.74866140611746
 20
-18.21493192014168
 10
67.78479037411748
 20
-18.22792088334168
 10
67.82134470691747
 20
-18.23895546574168
 10
67.85812174371748
 20
-18.24894758094168
 10
67.89491882051746
 20
-18.25880914574168
 10
67.94856213571748
 20
-18.27435437774168
 10
68.00194272611747
 20
-18.29104587054168
 10
68.05518972451747
 20
-18.30835325294168
 10
68.10843226851748
 20
-18.32574615694167
 10
68.16179948931747
 20
-18.34269420974168
 10
68.21542052451746
 20
-18.35866704334168
 10
68.26942450691745
 20
-18.37313428654167
 10
68.32394057251747
 20
-18.38556557134167
 10
68.37078419331746
 20
-18.39416600334168
 10
68.41795666531746
 20
-18.40072699374167
 10
68.46532274051748
 20
-18.40506656014167
 10
68.51683996931746
 20
-18.40715095214167
 10
68.56840283491746
 20
-18.40676851854168
 10
68.61998817411748
 20
-18.40428601454168
 10
68.67157282691747
 20
-18.40007019214167
 10
68.72313362851747
 20
-18.39448780014168
 10
68.77464741731748
 20
-18.38790559374167
 10
68.82609103171748
 20
-18.38069032494168
 10
68.97359155651748
 20
-18.35829185934167
 10
69.12039505411747
 20
-18.33380936974167
 10
69.26657699651747
 20
-18.30736294414167
 10
69.41221285731749
 20
-18.27907267534168
 10
69.55737810851747
 20
-18.24905865134167
 10
69.75216772291748
 20
-18.20614801934168
 10
69.94642547651747
 20
-18.16062466574168
 10
70.14033543651746
 20
-18.11278146894167
 10
70.33408166851748
 20
-18.06291131214168
 10
70.52784824131745
 20
-18.01130707374167
 10
70.72181921891746
 20
-17.95826163534167
  0
LWPOLYLINE
  5
2AC
330
2
100
AcDbEntity
  8
0
100
AcDbPolyline
 90
        3
 70
     0
 43
0.0
 10
71.10093460771747
 20
-16.78250282094167
 10
71.11224722531748
 20
-16.65697050574168
 10
71.13175151651748
 20
-16.43321665614168
  0
LWPOLYLINE
  5
2AD
330
2
100
AcDbEntity
  8
0
100
AcDbPolyline
 90
        4
 70
     0
 43
0.0
 10
71.14067218851747
 20
-16.32864292654167
 10
71.12327530531747
 20
-16.53145718734167
 10
71.11224722531748
 20
-16.65697050574168
 10
71.10093460771747
 20
-16.78250282094167
  0
LWPOLYLINE
  5
2AE
330
2
100
AcDbEntity
  8
0
100
AcDbPolyline
 90
        4
 70
     0
 43
0.0
 10
70.89157013571747
 20
-16.30746976174168
 10
70.87421355811748
 20
-16.50981759374167
 10
70.86322939971748
 20
-16.63483411854167
 10
70.85196925891747
 20
-16.75978316334168
  0
LWPOLYLINE
  5
2AF
330
2
100
AcDbEntity
  8
0
100
AcDbPolyline
 90
        4
 70
     0
 43
0.0
 10
70.89157013571747
 20
-16.30746976174168
 10
70.87421355811748
 20
-16.50981759374167
 10
70.86322939971748
 20
-16.63483411854167
 10
70.85196925891747
 20
-16.75978316334168
  0
LINE
  5
2B0
330
2
100
AcDbEntity
  8
0
100
AcDbLine
 10
70.79265912771745
 20
-17.38080994574168
 30
0.0
 11
71.13174243971747
 21
-13.27717413614168
 31
0.0
  0
LWPOLYLINE
  5
2B1
330
2
100
AcDbEntity
  8
0
  6
HIDDEN
100
AcDbPolyline
 90
       33
 70
     0
 43
0.0
 10
70.75770771011747
 20
-17.73860269614167
 10
70.73993343171747
 20
-17.92479913294168
 10
70.72167656451748
 20
-18.12164718414168
 10
70.69744437891748
 20
-18.39588699534167
 10
70.67460321091747
 20
-18.67656913134167
 10
70.65456858371746
 20
-18.95584735854168
 10
70.64009759651748
 20
-19.19120459854168
 10
70.62689589731746
 20
-19.41746334734168
 10
70.61306090371747
 20
-19.63247439374168
 10
70.60109542851748
 20
-19.78503269134167
 10
70.58672621571748
 20
-19.92899373294167
 10
70.56897595811747
 20
-20.06329602574167
 10
70.54686735171748
 20
-20.18687807694168
 10
70.52308343971748
 20
-20.28601215214167
 10
70.49469222051746
 20
-20.37636360014168
 10
70.46121114531747
 20
-20.45825771694168
 10
70.42215766211748
 20
-20.53201980654167
 10
70.37704922211748
 20
-20.59797516974168
 10
70.32540327651748
 20
-20.65644910574167
 10
70.26905434371747
 20
-20.70592045934167
 10
70.20513602371747
 20
-20.74922713934167
 10
70.13256180771747
 20
-20.78681300494167
 10
70.05024518531747
 20
-20.81912191534168
 10
69.95709964771748
 20
-20.84659772974168
 10
69.85203868451748
 20
-20.86968430734168
 10
69.75760256931747
 20
-20.88548670574167
 10
69.65538886531746
 20
-20.89895205774168
 10
69.54616440931747
 20
-20.91033608014168
 10
69.43069603171747
 20
-20.91989449454167
 10
69.26835082691747
 20
-20.93024119054168
 10
69.09808626211748
 20
-20.93840311854167
 10
68.92172002051748
 20
-20.94498642254168
 10
68.46438857731746
 20
-20.95902718094168
  0
LWPOLYLINE
  5
2B2
330
2
100
AcDbEntity
  8
0
  6
HIDDEN
100
AcDbPolyline
 90
       33
 70
     0
 43
0.0
 10
70.75770771011747
 20
-17.73860269614167
 10
70.73993343171747
 20
-17.92479913294168
 10
70.72167656451748
 20
-18.12164718414168
 10
70.69744437891748
 20
-18.39588699534167
 10
70.67460321091747
 20
-18.67656913134167
 10
70.65456858371746
 20
-18.95584735854168
 10
70.64009759651748
 20
-19.19120459854168
 10
70.62689589731746
 20
-19.41746334734168
 10
70.61306090371747
 20
-19.63247439374168
 10
70.60109542851748
 20
-19.78503269134167
 10
70.58672621571748
 20
-19.92899373294167
 10
70.56897595811747
 20
-20.06329602574167
 10
70.54686735171748
 20
-20.18687807694168
 10
70.52308343971748
 20
-20.28601215214167
 10
70.49469222051746
 20
-20.37636360014168
 10
70.46121114531747
 20
-20.45825771694168
 10
70.42215766211748
 20
-20.53201980654167
 10
70.37704922211748
 20
-20.59797516974168
 10
70.32540327651748
 20
-20.65644910574167
 10
70.26905434371747
 20
-20.70592045934167
 10
70.20513602371747
 20
-20.74922713934167
 10
70.13256180771747
 20
-20.78681300494167
 10
70.05024518531747
 20
-20.81912191534168
 10
69.95709964771748
 20
-20.84659772974168
 10
69.85203868451748
 20
-20.86968430734168
 10
69.75760256931747
 20
-20.88548670574167
 10
69.65538886531746
 20
-20.89895205774168
 10
69.54616440931747
 20
-20.91033608014168
 10
69.43069603171747
 20
-20.91989449454167
 10
69.26835082691747
 20
-20.93024119054168
 10
69.09808626211748
 20
-20.93840311854167
 10
68.92172002051748
 20
-20.94498642254168
 10
68.46438857731746
 20
-20.95902718094168
  0
LWPOLYLINE
  5
2B3
330
2
100
AcDbEntity
  8
0
100
AcDbPolyline
 90
       31
 70
     0
 43
0.0
 10
71.00654055331748
 20
-17.76273884494168
 10
70.98881661411747
 20
-17.94840353774167
 10
70.97064519331746
 20
-18.14433243054168
 10
70.94658171171747
 20
-18.41670243534167
 10
70.92392470691746
 20
-18.69513749134168
 10
70.90402903971747
 20
-18.97226315854167
 10
70.88960243491746
 20
-19.20630781134168
 10
70.87637052451748
 20
-19.43265834414168
 10
70.86243565891746
 20
-19.65014447214167
 10
70.85029025891748
 20
-19.80674198894168
 10
70.83533316611746
 20
-19.95722640974167
 10
70.81621552291747
 20
-20.10112915214168
 10
70.79158847491746
 20
-20.23798163854167
 10
70.76422862691746
 20
-20.35218755534168
 10
70.73013527811747
 20
-20.46072099214168
 10
70.68787674531748
 20
-20.56372194574167
 10
70.63616983971747
 20
-20.66105902254168
 10
70.57432537091748
 20
-20.75151526574168
 10
70.50180265091748
 20
-20.83360232654168
 10
70.42181891971748
 20
-20.90339518574168
 10
70.33263417891745
 20
-20.96383665454168
 10
70.23540787971746
 20
-21.01467857134167
 10
70.13097976131746
 20
-21.05597701934168
 10
70.01891071011747
 20
-21.08900508974168
 10
69.89844189891747
 20
-21.11534012174168
 10
69.75821049891746
 20
-21.13793538894167
 10
69.60813972451745
 20
-21.15555925614168
 10
69.44909012771748
 20
-21.16921696334168
 10
69.28204905411746
 20
-21.17985451534168
 10
69.10851103811748
 20
-21.18818096014167
 10
68.93009741091749
 20
-21.19484610734168
  0
LWPOLYLINE
  5
2B4
330
2
100
AcDbEntity
  8
0
100
AcDbPolyline
 90
       31
 70
     0
 43
0.0
 10
68.93009741091749
 20
-21.19484610734168
 10
69.10851103811748
 20
-21.18818096014167
 10
69.28204905411746
 20
-21.17985451534168
 10
69.44909012771748
 20
-21.16921696334168
 10
69.60813972451745
 20
-21.15555925614168
 10
69.75821049891746
 20
-21.13793538894167
 10
69.89844189891747
 20
-21.11534012174168
 10
70.01891071011747
 20
-21.08900508974168
 10
70.13097976131746
 20
-21.05597701934168
 10
70.23540787971746
 20
-21.01467857134167
 10
70.33263417891745
 20
-20.96383665454168
 10
70.42181891971748
 20
-20.90339518574168
 10
70.50180265091748
 20
-20.83360232654168
 10
70.57432537091748
 20
-20.75151526574168
 10
70.63616983971747
 20
-20.66105902254168
 10
70.68787674531748
 20
-20.56372194574167
 10
70.73013527811747
 20
-20.46072099214168
 10
70.76422862691746
 20
-20.35218755534168
 10
70.79158847491746
 20
-20.23798163854167
 10
70.81621552291747
 20
-20.10112915214168
 10
70.83533316611746
 20
-19.95722640974167
 10
70.85029025891748
 20
-19.80674198894168
 10
70.86243565891746
 20
-19.65014447214167
 10
70.87637052451748
 20
-19.43265834414168
 10
70.88960243491746
 20
-19.20630781134168
 10
70.90402903971747
 20
-18.97226315854167
 10
70.92392470691746
 20
-18.69513749134168
 10
70.94658171171747
 20
-18.41670243534167
 10
70.97064519331746
 20
-18.14433243054168
 10
70.98881661411747
 20
-17.94840353774167
 10
71.00654055331748
 20
-17.76273884494168
  0
LINE
  5
2B5
330
2
100
AcDbEntity
  8
0
100
AcDbLine
 10
71.08197287011748
 20
-16.98617871214168
 30
0.0
 11
71.10093460771747
 21
-16.78250282094167
 31
0.0
  0
LINE
  5
2B6
330
2
100
AcDbEntity
  8
0
100
AcDbLine
 10
71.10093460771747
 20
-16.78250282094167
 30
0.0
 11
71.08197287011748
 21
-16.98617871214168
 31
0.0
  0
LINE
  5
2B7
330
2
100
AcDbEntity
  8
0
100
AcDbLine
 10
71.00654055331748
 20
-17.76273884494168
 30
0.0
 11
71.05840104771747
 21
-17.23162593774168
 31
0.0
  0
LWPOLYLINE
  5
2B8
330
2
100
AcDbEntity
  8
0
100
AcDbPolyline
 90
        3
 70
     0
 43
0.0
 10
71.06694251331745
 20
-17.14336217934167
 10
71.03873990691747
 20
-17.43301999854168
 10
71.00654055331748
 20
-17.76273884494168
  0
LINE
  5
2B9
330
2
100
AcDbEntity
  8
0
100
AcDbLine
 10
71.05840104771747
 20
-17.23162593774168
 30
0.0
 11
71.08197287011748
 21
-16.98617871214168
 31
0.0
  0
LINE
  5
2BA
330
2
100
AcDbEntity
  8
0
100
AcDbLine
 10
71.08197287011748
 20
-16.98617871214168
 30
0.0
 11
71.06694251331745
 21
-17.14336217934168
 31
0.0
  0
LINE
  5
2BB
330
2
100
AcDbEntity
  8
0
100
AcDbLine
 10
70.85196925891747
 20
-16.75978316334168
 30
0.0
 11
70.83308751331748
 21
-16.96259716334169
 31
0.0
  0
LINE
  5
2BC
330
2
100
AcDbEntity
  8
0
100
AcDbLine
 10
70.85196925891747
 20
-16.75978316334168
 30
0.0
 11
70.83308751331748
 21
-16.96259716334169
 31
0.0
  0
LWPOLYLINE
  5
2BD
330
2
100
AcDbEntity
  8
0
100
AcDbPolyline
 90
        3
 70
     0
 43
0.0
 10
70.81810128931746
 20
-17.11932196654167
 10
70.78993327331748
 20
-17.40862188014168
 10
70.75770771011747
 20
-17.73860269614167
  0
LWPOLYLINE
  5
2BE
330
2
100
AcDbEntity
  8
0
100
AcDbPolyline
 90
        3
 70
     0
 43
0.0
 10
70.81810128931746
 20
-17.11932196654167
 10
70.78993327331748
 20
-17.40862188014168
 10
70.75770771011747
 20
-17.73860269614167
  0
LINE
  5
2BF
330
2
100
AcDbEntity
  8
0
100
AcDbLine
 10
70.83308751331748
 20
-16.96259716334169
 30
0.0
 11
70.81810128931746
 21
-17.11932196654168
 31
0.0
  0
LINE
  5
2C0
330
2
100
AcDbEntity
  8
0
100
AcDbLine
 10
70.83308751331748
 20
-16.96259716334169
 30
0.0
 11
70.81810128931746
 21
-17.11932196654168
 31
0.0
  0
LINE
  5
2C1
330
2
100
AcDbEntity
  8
0
100
AcDbLine
 10
63.82199350851746
 20
-12.82723189294168
 30
0.0
 11
63.94295003811746
 21
-14.34101919054168
 31
0.0
  0
LINE
  5
2C2
330
2
100
AcDbEntity
  8
0
100
AcDbLine
 10
64.02217108131748
 20
-14.69984810894167
 30
0.0
 11
63.85346968131748
 21
-12.57520824014167
 31
0.0
  0
LINE
  5
2C3
330
2
100
AcDbEntity
  8
0
100
AcDbLine
 10
63.97287027171748
 20
-14.71601919054168
 30
0.0
 11
63.89744712931747
 21
-13.77071650894167
 31
0.0
  0
LINE
  5
2C4
330
2
100
AcDbEntity
  8
0
100
AcDbLine
 10
60.15787424291747
 20
-14.70006208334167
 30
0.0
 11
60.09220634691747
 21
-13.22411124654168
 31
0.0
  0
LINE
  5
2C5
330
2
100
AcDbEntity
  8
0
100
AcDbLine
 10
60.04275817731747
 20
-12.75003559534168
 30
0.0
 11
60.13036939171747
 21
-14.71601919054168
 31
0.0
  0
LINE
  5
2C6
330
2
100
AcDbEntity
  8
0
100
AcDbLine
 10
60.15787425571748
 20
-14.70006213934168
 30
0.0
 11
60.15426055971747
 21
-14.71601924814167
 31
0.0
  0
LINE
  5
2C7
330
2
100
AcDbEntity
  8
0
100
AcDbLine
 10
64.02217110211748
 20
-14.69984816014168
 30
0.0
 11
64.01570912291745
 21
-14.71601924014167
 31
0.0
  0
LINE
  5
2C8
330
2
100
AcDbEntity
  8
0
100
AcDbLine
 10
60.09220634691747
 20
-13.22411124654168
 30
0.0
 11
60.02659783811748
 21
-11.73861325614168
 31
0.0
  0
LINE
  5
2C9
330
2
100
AcDbEntity
  8
0
100
AcDbLine
 10
59.99913790691747
 20
-11.75524233934168
 30
0.0
 11
60.04275817731747
 21
-12.75003559534168
 31
0.0
  0
LINE
  5
2CA
330
2
100
AcDbEntity
  8
0
100
AcDbLine
 10
63.74653603491748
 20
-11.87086551534168
 30
0.0
 11
63.82199350851746
 21
-12.82723189294168
 31
0.0
  0
LINE
  5
2CB
330
2
100
AcDbEntity
  8
0
100
AcDbLine
 10
63.85346968131748
 20
-12.57520824014167
 30
0.0
 11
63.79729432611748
 21
-11.85373812494169
 31
0.0
  0
LINE
  5
2CD
330
2
100
AcDbEntity
  8
0
100
AcDbLine
 10
71.15225959171747
 20
-13.28566100974168
 30
0.0
 11
70.99284822531746
 21
-15.12969421934168
 31
0.0
  0
LINE
  5
2CE
330
2
100
AcDbEntity
  8
0
100
AcDbLine
 10
71.15225959171747
 20
-13.28566100974168
 30
0.0
 11
70.99284822531746
 21
-15.12969421934168
 31
0.0
  0
LINE
  5
2CF
330
2
100
AcDbEntity
  8
0
100
AcDbLine
 10
71.28885752131748
 20
-14.60413121614168
 30
0.0
 11
71.34051827331745
 21
-14.00639278574168
 31
0.0
  0
LINE
  5
2D0
330
2
100
AcDbEntity
  8
0
100
AcDbLine
 10
71.34051827331745
 20
-14.00639278574168
 30
0.0
 11
71.24194053571748
 21
-15.15097881454167
 31
0.0
  0
LINE
  5
2D1
330
2
100
AcDbEntity
  8
0
100
AcDbLine
 10
71.24194053571748
 20
-15.15097881454167
 30
0.0
 11
71.28885752131748
 21
-14.60413121614168
 31
0.0
  0
LINE
  5
2D2
330
2
100
AcDbEntity
  8
0
100
AcDbLine
 10
71.13175151651748
 20
-16.43321665614168
 30
0.0
 11
71.20492353891748
 21
-15.56806774894169
 31
0.0
  0
LINE
  5
2D3
330
2
100
AcDbEntity
  8
0
100
AcDbLine
 10
71.20492353891748
 20
-15.56806774894169
 30
0.0
 11
71.24194053571748
 21
-15.15097881454167
 31
0.0
  0
LINE
  5
2D4
330
2
100
AcDbEntity
  8
0
100
AcDbLine
 10
71.24194053571748
 20
-15.15097881454167
 30
0.0
 11
71.14067218851747
 21
-16.32864292654168
 31
0.0
  0
LINE
  5
2D6
330
2
100
AcDbEntity
  8
0
100
AcDbLine
 10
70.99284822531746
 20
-15.12969421934168
 30
0.0
 11
70.89157013571747
 21
-16.30746976174169
 31
0.0
  0
LINE
  5
2D7
330
2
100
AcDbEntity
  8
0
100
AcDbLine
 10
70.99284822531746
 20
-15.12969421934168
 30
0.0
 11
70.89157013571747
 21
-16.30746976174169
 31
0.0
  0
ARC
  5
2D8
330
2
100
AcDbEntity
  8
0
100
AcDbCircle
 10
71.65036851811746
 20
-13.32910634254167
 30
0.0
 40
0.25
100
AcDbArc
 50
91.50743575879999
 51
175.0152452882
  0
ARC
  5
2D9
330
2
100
AcDbEntity
  8
0
100
AcDbCircle
 10
71.65036851811746
 20
-13.32910634254167
 30
0.0
 40
0.5
100
AcDbArc
 50
91.50743578549999
 51
175.0152457161
  0
ARC
  5
2DA
330
2
100
AcDbEntity
  8
0
100
AcDbCircle
 10
71.65036851811746
 20
-13.32910634254167
 30
0.0
 40
0.5
100
AcDbArc
 50
91.50743578549999
 51
175.0152457161
  0
ARC
  5
2DB
330
2
100
AcDbEntity
  8
0
100
AcDbCircle
 10
71.65606084771747
 20
-13.35927898894168
 30
0.0
 40
0.530708016
100
AcDbArc
 50
91.5166186305
 51
171.1001300191
  0
LINE
  5
2DC
330
2
100
AcDbEntity
  8
0
100
AcDbLine
 10
71.64948411011747
 20
-12.82881428014168
 30
0.0
 11
71.64513272611748
 21
-12.82567113774168
 31
0.0
  0
LINE
  5
2DD
330
2
100
AcDbEntity
  8
0
100
AcDbLine
 10
71.64513272611748
 20
-12.82567113774168
 30
0.0
 11
71.63751961731747
 21
-12.82154129614167
 31
0.0
  0
LINE
  5
2DE
330
2
100
AcDbEntity
  8
0
100
AcDbLine
 10
71.63751961731747
 20
-12.82154129614167
 30
0.0
 11
71.62665502691746
 21
-12.81642517454167
 31
0.0
  0
LINE
  5
2DF
330
2
100
AcDbEntity
  8
0
100
AcDbLine
 10
71.62665502691746
 20
-12.81642517454167
 30
0.0
 11
71.61264581731746
 21
-12.81038927694167
 31
0.0
  0
LINE
  5
2E0
330
2
100
AcDbEntity
  8
0
100
AcDbLine
 10
71.61264581731746
 20
-12.81038927694167
 30
0.0
 11
71.59251101411746
 21
-12.80228536494168
 31
0.0
  0
LINE
  5
2E1
330
2
100
AcDbEntity
  8
0
100
AcDbLine
 10
71.59562864771746
 20
-12.80350862094168
 30
0.0
 11
71.57307934211747
 21
-12.79485527374167
 31
0.0
  0
LINE
  5
2E2
330
2
100
AcDbEntity
  8
0
100
AcDbLine
 10
71.57575793411746
 20
-12.79586189134168
 30
0.0
 11
71.55115284131747
 21
-12.78678657774168
 31
0.0
  0
LINE
  5
2E3
330
2
100
AcDbEntity
  8
0
100
AcDbLine
 10
71.55315643331746
 20
-12.78751241454168
 30
0.0
 11
71.52682679331746
 21
-12.77812831534167
 31
0.0
  0
LINE
  5
2E4
330
2
100
AcDbEntity
  8
0
100
AcDbLine
 10
71.52793285091746
 20
-12.77851630414167
 30
0.0
 11
71.50021254851748
 21
-12.76893314414168
 31
0.0
  0
LINE
  5
2E5
330
2
100
AcDbEntity
  8
0
100
AcDbLine
 10
71.50021254851748
 20
-12.76893314414168
 30
0.0
 11
71.32414379971746
 21
-12.70953130894167
 31
0.0
  0
LINE
  5
2E6
330
2
100
AcDbEntity
  8
0
100
AcDbLine
 10
71.32414379971746
 20
-12.70953130894167
 30
0.0
 11
71.19465455011746
 21
-12.66638408494168
 31
0.0
  0
LINE
  5
2E7
330
2
100
AcDbEntity
  8
0
100
AcDbLine
 10
71.19465455011746
 20
-12.66638408494168
 30
0.0
 11
71.09866798051746
 21
-12.63500751054168
 31
0.0
  0
LINE
  5
2E8
330
2
100
AcDbEntity
  8
0
100
AcDbLine
 10
71.09866798051746
 20
-12.63500751054168
 30
0.0
 11
70.99466692451747
 21
-12.60162397614168
 31
0.0
  0
LINE
  5
2E9
330
2
100
AcDbEntity
  8
0
100
AcDbLine
 10
71.61711882691747
 20
-12.82678974094167
 30
0.0
 11
71.61725873571748
 21
-12.82682730414168
 31
0.0
  0
LWPOLYLINE
  5
2EA
330
2
100
AcDbEntity
  8
0
100
AcDbPolyline
 90
        4
 70
     0
 43
0.0
 10
71.62248249251746
 20
-12.82774130254167
 10
71.63398031171746
 20
-12.82982790254167
 10
71.64115686691747
 20
-12.83099150894167
 10
71.64731966051746
 20
-12.83146075854167
  0
LINE
  5
2EB
330
2
100
AcDbEntity
  8
0
100
AcDbLine
 10
71.61725873571748
 20
-12.82682730414168
 30
0.0
 11
71.62546212931747
 21
-12.82827255534168
 31
0.0
  0
LWPOLYLINE
  5
2EC
330
2
100
AcDbEntity
  8
0
100
AcDbPolyline
 90
        4
 70
     0
 43
0.0
 10
71.63112505571746
 20
-12.82930386574167
 10
71.63790538851748
 20
-12.83050581454167
 10
71.64438570851746
 20
-12.83135110094166
 10
71.64733099811747
 20
-12.83146045614167
  0
LWPOLYLINE
  5
2ED
330
2
100
AcDbEntity
  8
0
100
AcDbPolyline
 90
        3
 70
     0
 43
0.0
 10
71.63721555011747
 20
-12.82927937294167
 10
71.63528809411747
 20
-12.82902520814167
 10
71.63008447011748
 20
-12.82836350094167
  0
LINE
  5
2EE
330
2
100
AcDbEntity
  8
0
100
AcDbLine
 10
71.63721554851747
 20
-12.82927937294168
 30
0.0
 11
71.63523044931747
 21
-12.82901786094167
 31
0.0
  0
LWPOLYLINE
  5
2EF
330
2
100
AcDbEntity
  8
0
100
AcDbPolyline
 90
        3
 70
     0
 43
0.0
 10
71.62047716771747
 20
-12.82718991374166
 10
71.61782171971748
 20
-12.82686472334168
 10
71.61712054691747
 20
-12.82678969614166
  0
LINE
  5
2F0
330
2
100
AcDbEntity
  8
0
100
AcDbLine
 10
71.63037736931747
 20
-12.82839932654168
 30
0.0
 11
71.61773111491746
 21
-12.82685502894167
 31
0.0
  0
LINE
  5
2F1
330
2
100
AcDbEntity
  8
0
100
AcDbLine
 10
71.34051827331745
 20
-14.00639278574168
 30
0.0
 11
71.40131405571747
 21
-13.30738367374168
 31
0.0
  0
LINE
  5
2F2
330
2
100
AcDbEntity
  8
0
100
AcDbLine
 10
71.40131405571747
 20
-13.30738367374168
 30
0.0
 11
71.34051827331745
 21
-14.00639278574168
 31
0.0
  0
LWPOLYLINE
  5
2F3
330
2
100
AcDbEntity
  8
0
100
AcDbPolyline
 90
        8
 70
     0
 43
0.0
 10
71.64733313251748
 20
-12.83146040014167
 10
71.64888236291748
 20
-12.83131381134168
 10
71.65032163331748
 20
-12.83012152174166
 10
71.64826990051747
 20
-12.82776354414166
 10
71.64293412451747
 20
-12.82439577934167
 10
71.63467822211746
 20
-12.82014540494167
 10
71.62344021091747
 20
-12.81499869614167
 10
71.60934324771748
 20
-12.80902266734167
  0
LWPOLYLINE
  5
2F4
330
2
100
AcDbEntity
  8
0
100
AcDbPolyline
 90
        3
 70
     0
 43
0.0
 10
71.64732195011746
 20
-12.83146069774167
 10
71.65011562851749
 20
-12.83078804494167
 10
71.64952923971748
 20
-12.82895532814166
  0
LINE
  5
2F5
330
2
100
AcDbEntity
  8
0
100
AcDbLine
 10
70.99466692451747
 20
-12.60162397614168
 30
0.0
 11
70.88273335651746
 21
-12.56639691374168
 31
0.0
  0
LINE
  5
2F8
330
2
100
AcDbEntity
  8
0
100
AcDbLine
 10
76.19110248611747
 20
-14.69823654575306
 30
0.0
 11
76.02296476611747
 21
-13.17438496015307
 31
0.0
  0
LWPOLYLINE
  5
2F9
330
2
100
AcDbEntity
  8
0
100
AcDbPolyline
 90
        6
 70
     0
 43
0.0
 10
75.46314611011746
 20
-12.71935507214167
 10
75.42023927331746
 20
-12.71216777294167
 10
75.35502781091747
 20
-12.70041884974167
 10
75.26540203491745
 20
-12.68399261934167
 10
75.14834121411746
 20
-12.66283104654167
 10
74.82616879331747
 20
-12.60582619694167
  0
LWPOLYLINE
  5
2FA
330
2
100
AcDbEntity
  8
0
100
AcDbPolyline
 90
        3
 70
     0
 43
0.0
 10
74.82616879331747
 20
-12.60582619694167
 10
74.62318886051747
 20
-12.56937855854167
 10
74.39390875651747
 20
-12.52684626094167
  0
LWPOLYLINE
  5
2FB
330
2
100
AcDbEntity
  8
0
100
AcDbPolyline
 90
        3
 70
     0
 43
0.0
 10
73.84667962531747
 20
-12.42142231054168
 10
73.52071014531748
 20
-12.35721124814167
 10
72.74087500611748
 20
-12.20281914254167
  0
LWPOLYLINE
  5
2FC
330
2
100
AcDbEntity
  8
0
100
AcDbPolyline
 90
        3
 70
     0
 43
0.0
 10
74.39390875651747
 20
-12.52684626094167
 10
74.13623339491747
 20
-12.47772811854167
 10
73.84667962531747
 20
-12.42142231054168
  0
LINE
  5
2FD
330
2
100
AcDbEntity
  8
0
100
AcDbLine
 10
75.51432035811746
 20
-12.72825888014168
 30
0.0
 11
75.51445926691747
 21
-12.72830988174168
 31
0.0
  0
LINE
  5
2FE
330
2
100
AcDbEntity
  8
0
100
AcDbLine
 10
75.69330720131748
 20
-12.75699842895307
 30
0.0
 11
75.67894682691747
 21
-12.75213843375306
 31
0.0
  0
LWPOLYLINE
  5
2FF
330
2
100
AcDbEntity
  8
0
100
AcDbPolyline
 90
        7
 70
     0
 43
0.0
 10
75.68654258211745
 20
-12.75464860335306
 10
75.66959599971747
 20
-12.74923170415306
 10
75.65377931011747
 20
-12.74476623055306
 10
75.64170544451747
 20
-12.74173082575306
 10
75.63324265251748
 20
-12.73979216975305
 10
75.62716884131745
 20
-12.73849544495305
 10
75.62164910851746
 20
-12.73738491055306
  0
LINE
  5
300
330
2
100
AcDbEntity
  8
0
100
AcDbLine
 10
75.67894682691747
 20
-12.75213843375306
 30
0.0
 11
75.66667559171747
 21
-12.74836483215306
 31
0.0
  0
LWPOLYLINE
  5
301
330
2
100
AcDbEntity
  8
0
100
AcDbPolyline
 90
        3
 70
     0
 43
0.0
 10
75.65646378051747
 20
-12.74548471375305
 10
75.64813051971746
 20
-12.74330634735306
 10
75.64136908451747
 20
-12.74165081935306
  0
LINE
  5
302
330
2
100
AcDbEntity
  8
0
100
AcDbLine
 10
75.59711726211748
 20
-12.73323288015307
 30
0.0
 11
75.68654258211745
 21
-12.75464860335306
 31
0.0
  0
LINE
  5
303
330
2
100
AcDbEntity
  8
0
100
AcDbLine
 10
75.63585005411747
 20
-12.74037303215306
 30
0.0
 11
75.63130625251748
 21
-12.73937021615306
 31
0.0
  0
LINE
  5
304
330
2
100
AcDbEntity
  8
0
100
AcDbLine
 10
75.62753473731746
 20
-12.73857133935306
 30
0.0
 11
75.62436490531746
 21
-12.73792327055307
 31
0.0
  0
LINE
  5
305
330
2
100
AcDbEntity
  8
0
100
AcDbLine
 10
75.62261060611746
 20
-12.73757373455307
 30
0.0
 11
75.61904215811748
 21
-12.73688271055307
 31
0.0
  0
LINE
  5
306
330
2
100
AcDbEntity
  8
0
100
AcDbLine
 10
75.61928491971747
 20
-12.73692887375306
 30
0.0
 11
75.61614601251747
 21
-12.73634146095306
 31
0.0
  0
LINE
  5
307
330
2
100
AcDbEntity
  8
0
100
AcDbLine
 10
75.61719731171746
 20
-12.73653591375306
 30
0.0
 11
75.61372326531747
 21
-12.73590207855307
 31
0.0
  0
LINE
  5
308
330
2
100
AcDbEntity
  8
0
100
AcDbLine
 10
75.51241184451746
 20
-12.72798694094167
 30
0.0
 11
75.50967470531748
 21
-12.72749503054167
 31
0.0
  0
LINE
  5
309
330
2
100
AcDbEntity
  8
0
100
AcDbLine
 10
75.61372326531747
 20
-12.73590207855307
 30
0.0
 11
75.61065820131748
 21
-12.73536357295307
 31
0.0
  0
LINE
  5
30A
330
2
100
AcDbEntity
  8
0
100
AcDbLine
 10
75.61164410691748
 20
-12.73553468015307
 30
0.0
 11
75.60803289091746
 21
-12.73491763535306
 31
0.0
  0
LINE
  5
30B
330
2
100
AcDbEntity
  8
0
100
AcDbLine
 10
75.60803289091746
 20
-12.73491763535306
 30
0.0
 11
75.60481384451747
 21
-12.73438996975307
 31
0.0
  0
LINE
  5
30C
330
2
100
AcDbEntity
  8
0
100
AcDbLine
 10
75.60530312451746
 20
-12.73446882095307
 30
0.0
 11
75.60273366211745
 21
-12.73406010895306
 31
0.0
  0
LINE
  5
30D
330
2
100
AcDbEntity
  8
0
100
AcDbLine
 10
75.59711726211748
 20
-12.73323288015307
 30
0.0
 11
75.59959204771747
 21
-12.73362343375307
 31
0.0
  0
LINE
  5
30E
330
2
100
AcDbEntity
  8
0
100
AcDbLine
 10
75.51445926691747
 20
-12.72830988174168
 30
0.0
 11
75.51241184451746
 21
-12.72798694094167
 31
0.0
  0
LINE
  5
30F
330
2
100
AcDbEntity
  8
0
100
AcDbLine
 10
75.60330154531746
 20
-12.73414929775307
 30
0.0
 11
75.60016519491748
 21
-12.73366478255307
 31
0.0
  0
LWPOLYLINE
  5
310
330
2
100
AcDbEntity
  8
0
100
AcDbPolyline
 90
        3
 70
     0
 43
0.0
 10
75.59889407491747
 20
-12.73352077935305
 10
75.58653703651746
 20
-12.73164424335305
 10
75.54561248611747
 20
-12.72668953775306
  0
LINE
  5
311
330
2
100
AcDbEntity
  8
0
100
AcDbLine
 10
75.60040798851748
 20
-12.73370158895307
 30
0.0
 11
75.59622419651745
 21
-12.73308370575306
 31
0.0
  0
LINE
  5
312
330
2
100
AcDbEntity
  8
0
100
AcDbLine
 10
75.51249462691746
 20
-12.72799182574168
 30
0.0
 11
75.51432035811746
 21
-12.72825888014168
 31
0.0
  0
LINE
  5
313
330
2
100
AcDbEntity
  8
0
100
AcDbLine
 10
75.48394168611747
 20
-12.72229825454168
 30
0.0
 11
75.46314611011746
 21
-12.71935507214168
 31
0.0
  0
LINE
  5
314
330
2
100
AcDbEntity
  8
0
100
AcDbLine
 10
75.59624864611746
 20
-12.73308724815307
 30
0.0
 11
75.59339332291748
 21
-12.73268543695307
 31
0.0
  0
LINE
  5
315
330
2
100
AcDbEntity
  8
0
100
AcDbLine
 10
75.59339332291748
 20
-12.73268543695307
 30
0.0
 11
75.58289610211748
 21
-12.73134388975307
 31
0.0
  0
LWPOLYLINE
  5
316
330
2
100
AcDbEntity
  8
0
100
AcDbPolyline
 90
        3
 70
     0
 43
0.0
 10
75.58289610211748
 20
-12.73134388975306
 10
75.58153308611747
 20
-12.73118533775306
 10
75.57877461411746
 20
-12.73087536655306
  0
LINE
  5
317
330
2
100
AcDbEntity
  8
0
100
AcDbLine
 10
75.57877461411746
 20
-12.73087536655307
 30
0.0
 11
75.57596608131746
 21
-12.73057472495306
 31
0.0
  0
LWPOLYLINE
  5
318
330
2
100
AcDbEntity
  8
0
100
AcDbPolyline
 90
        6
 70
     0
 43
0.0
 10
75.51445926691747
 20
-12.72830988174167
 10
75.51398931811746
 20
-12.72825951694167
 10
75.51128126531748
 20
-12.72779158414167
 10
75.50614536451746
 20
-12.72684355214168
 10
75.49818617411748
 20
-12.72559696814168
 10
75.48723225571746
 20
-12.72419526414167
  0
LINE
  5
319
330
2
100
AcDbEntity
  8
0
100
AcDbLine
 10
75.57596608131746
 20
-12.73057472495306
 30
0.0
 11
75.57310010371748
 21
-12.73028344975306
 31
0.0
  0
LINE
  5
31A
330
2
100
AcDbEntity
  8
0
100
AcDbLine
 10
75.57310010371748
 20
-12.73028344975306
 30
0.0
 11
75.57016994371747
 21
-12.73000181455307
 31
0.0
  0
LINE
  5
31B
330
2
100
AcDbEntity
  8
0
100
AcDbLine
 10
75.48723225571746
 20
-12.72419526414168
 30
0.0
 11
75.47919857571748
 21
-12.72341835054167
 31
0.0
  0
LINE
  5
31C
330
2
100
AcDbEntity
  8
0
100
AcDbLine
 10
75.57016994371747
 20
-12.73000181455307
 30
0.0
 11
75.56718745411746
 21
-12.72973189935307
 31
0.0
  0
LWPOLYLINE
  5
31D
330
2
100
AcDbEntity
  8
0
100
AcDbPolyline
 90
        3
 70
     0
 43
0.0
 10
75.54568111171747
 20
-12.72669658895306
 10
75.52647491971746
 20
-12.72497746575305
 10
75.50914042051747
 20
-12.72364194894167
  0
LINE
  5
31E
330
2
100
AcDbEntity
  8
0
100
AcDbLine
 10
75.56718745411746
 20
-12.72973189935307
 30
0.0
 11
75.56437187331747
 21
-12.72949252655306
 31
0.0
  0
LINE
  5
31F
330
2
100
AcDbEntity
  8
0
100
AcDbLine
 10
75.56437187331747
 20
-12.72949252655306
 30
0.0
 11
75.56176823171748
 21
-12.72928440015307
 31
0.0
  0
LINE
  5
320
330
2
100
AcDbEntity
  8
0
100
AcDbLine
 10
75.56176823171748
 20
-12.72928440015307
 30
0.0
 11
75.55935296451747
 21
-12.72910259055307
 31
0.0
  0
LINE
  5
321
330
2
100
AcDbEntity
  8
0
100
AcDbLine
 10
75.47919857571748
 20
-12.72341835054167
 30
0.0
 11
75.46866005731747
 21
-12.72264812974168
 31
0.0
  0
LINE
  5
322
330
2
100
AcDbEntity
  8
0
100
AcDbLine
 10
75.55935296451747
 20
-12.72910259055307
 30
0.0
 11
75.55603993411748
 21
-12.72887063215306
 31
0.0
  0
LINE
  5
323
330
2
100
AcDbEntity
  8
0
100
AcDbLine
 10
75.55603993411748
 20
-12.72887063215306
 30
0.0
 11
75.55304939171747
 21
-12.72867833775307
 31
0.0
  0
LINE
  5
324
330
2
100
AcDbEntity
  8
0
100
AcDbLine
 10
75.55304939171747
 20
-12.72867833775307
 30
0.0
 11
75.55033572131748
 21
-12.72851765295306
 31
0.0
  0
LINE
  5
325
330
2
100
AcDbEntity
  8
0
100
AcDbLine
 10
75.46866005731747
 20
-12.72264812974168
 30
0.0
 11
75.45578798531747
 21
-12.72187874094167
 31
0.0
  0
LINE
  5
326
330
2
100
AcDbEntity
  8
0
100
AcDbLine
 10
75.50878867011746
 20
-12.72777311374167
 30
0.0
 11
75.51249462691746
 21
-12.72799182574168
 31
0.0
  0
LINE
  5
327
330
2
100
AcDbEntity
  8
0
100
AcDbLine
 10
75.47845048131748
 20
-12.72198595054168
 30
0.0
 11
75.48394168611747
 21
-12.72229825454168
 31
0.0
  0
LINE
  5
328
330
2
100
AcDbEntity
  8
0
100
AcDbLine
 10
75.50914042051747
 20
-12.72364194894167
 30
0.0
 11
75.48850941891746
 21
-12.72248429614168
 31
0.0
  0
LINE
  5
329
330
2
100
AcDbEntity
  8
0
100
AcDbLine
 10
75.55033572131748
 20
-12.72851765295306
 30
0.0
 11
75.54708510691748
 21
-12.72834214895306
 31
0.0
  0
LINE
  5
32A
330
2
100
AcDbEntity
  8
0
100
AcDbLine
 10
75.45578798531747
 20
-12.72187874094167
 30
0.0
 11
75.44786413571748
 21
-12.72145782734168
 31
0.0
  0
LINE
  5
32B
330
2
100
AcDbEntity
  8
0
100
AcDbLine
 10
75.54708510691748
 20
-12.72834214895306
 30
0.0
 11
75.54419158691747
 21
-12.72820115375306
 31
0.0
  0
LINE
  5
32C
330
2
100
AcDbEntity
  8
0
100
AcDbLine
 10
75.48852586051748
 20
-12.72248513774168
 30
0.0
 11
75.48346500131748
 21
-12.72223078894168
 31
0.0
  0
LINE
  5
32D
330
2
100
AcDbEntity
  8
0
100
AcDbLine
 10
75.48346500131748
 20
-12.72223078894168
 30
0.0
 11
75.47851582691746
 21
-12.72198904174167
 31
0.0
  0
LINE
  5
32E
330
2
100
AcDbEntity
  8
0
100
AcDbLine
 10
75.54419158691747
 20
-12.72820115375306
 30
0.0
 11
75.54099530691747
 21
-12.72806162575306
 31
0.0
  0
LINE
  5
32F
330
2
100
AcDbEntity
  8
0
100
AcDbLine
 10
75.54099530691747
 20
-12.72806162575306
 30
0.0
 11
75.53819200931747
 21
-12.72795282095307
 31
0.0
  0
LINE
  5
330
330
2
100
AcDbEntity
  8
0
100
AcDbLine
 10
75.53819200931747
 20
-12.72795282095307
 30
0.0
 11
75.52818544931747
 21
-12.72766142255307
 31
0.0
  0
LINE
  5
331
330
2
100
AcDbEntity
  8
0
100
AcDbLine
 10
75.50391486691748
 20
-12.72766287534167
 30
0.0
 11
75.50878867011746
 21
-12.72777311374167
 31
0.0
  0
LWPOLYLINE
  5
332
330
2
100
AcDbEntity
  8
0
100
AcDbPolyline
 90
        3
 70
     0
 43
0.0
 10
75.52818544931747
 20
-12.72766142255306
 10
75.52778230051746
 20
-12.72765272175305
 10
75.52430310371747
 20
-12.72758703055306
  0
LINE
  5
333
330
2
100
AcDbEntity
  8
0
100
AcDbLine
 10
75.52430310371747
 20
-12.72758703055307
 30
0.0
 11
75.52296799011748
 21
-12.72754056814167
 31
0.0
  0
LINE
  5
334
330
2
100
AcDbEntity
  8
0
100
AcDbLine
 10
75.52296799011748
 20
-12.72754056814167
 30
0.0
 11
75.51957148131748
 21
-12.72750711054168
 31
0.0
  0
LINE
  5
335
330
2
100
AcDbEntity
  8
0
100
AcDbLine
 10
75.51957148131748
 20
-12.72750711054168
 30
0.0
 11
75.51607593251748
 21
-12.72748847374168
 31
0.0
  0
LINE
  5
336
330
2
100
AcDbEntity
  8
0
100
AcDbLine
 10
75.51607593251748
 20
-12.72748847374168
 30
0.0
 11
75.51252132291748
 21
-12.72748568014168
 31
0.0
  0
LINE
  5
337
330
2
100
AcDbEntity
  8
0
100
AcDbLine
 10
75.49861859811747
 20
-12.72765714734167
 30
0.0
 11
75.50391486691748
 21
-12.72766287534167
 31
0.0
  0
LINE
  5
338
330
2
100
AcDbEntity
  8
0
100
AcDbLine
 10
75.51252132291748
 20
-12.72748568014168
 30
0.0
 11
75.50894290691747
 21
-12.72749908494168
 31
0.0
  0
LINE
  5
339
330
2
100
AcDbEntity
  8
0
100
AcDbLine
 10
75.50894290691747
 20
-12.72749908494168
 30
0.0
 11
75.50489048291746
 21
-12.72753369774167
 31
0.0
  0
LINE
  5
33A
330
2
100
AcDbEntity
  8
0
100
AcDbLine
 10
75.50489048291746
 20
-12.72753369774167
 30
0.0
 11
75.49682412611748
 21
-12.72766357134168
 31
0.0
  0
LINE
  5
33B
330
2
100
AcDbEntity
  8
0
100
AcDbLine
 10
75.49319928131746
 20
-12.72774869454167
 30
0.0
 11
75.49682412611748
 21
-12.72766357134168
 31
0.0
  0
LINE
  5
33C
330
2
100
AcDbEntity
  8
0
100
AcDbLine
 10
75.49682412611748
 20
-12.72766357134168
 30
0.0
 11
75.48802678691746
 21
-12.72794223534168
 31
0.0
  0
LINE
  5
33D
330
2
100
AcDbEntity
  8
0
100
AcDbLine
 10
75.48963487971747
 20
-12.72786600334167
 30
0.0
 11
75.49319517571746
 21
-12.72774880014168
 31
0.0
  0
LINE
  5
33E
330
2
100
AcDbEntity
  8
0
100
AcDbLine
 10
75.48802700131748
 20
-12.72794222894168
 30
0.0
 11
75.48963489891747
 21
-12.72786600174167
 31
0.0
  0
LWPOLYLINE
  5
341
330
2
100
AcDbEntity
  8
0
100
AcDbPolyline
 90
       16
 70
     0
 43
0.0
 10
76.02297057571746
 20
-13.17438436015307
 10
76.01690856931748
 20
-13.13390304975305
 10
76.00493276131746
 20
-13.08496395055306
 10
75.98869054211746
 20
-13.03893467535306
 10
75.96876990211746
 20
-12.99610089455306
 10
75.94575032771746
 20
-12.95665538735306
 10
75.92020049411747
 20
-12.92071893295306
 10
75.89266732451747
 20
-12.88833889615305
 10
75.86366717411746
 20
-12.85949532015306
 10
75.83374383651747
 20
-12.83415999375306
 10
75.80406410531748
 20
-12.81267009775307
 10
75.77621774211746
 20
-12.79531926095306
 10
75.75132030531747
 20
-12.78184362415307
 10
75.72920905251746
 20
-12.77134465455306
 10
75.70988899331746
 20
-12.76322474095306
 10
75.69330720131748
 20
-12.75699842895306
  0
LINE
  5
342
330
2
100
AcDbEntity
  8
0
100
AcDbLine
 10
59.77463505091748
 20
-10.54520114734169
 30
0.0
 11
58.88206047011746
 21
-10.51437301134168
 31
0.0
  0
LWPOLYLINE
  5
343
330
2
100
AcDbEntity
  8
0
100
AcDbPolyline
 90
       17
 70
     0
 43
0.0
 10
56.60727517091746
 20
-10.45997911534168
 10
56.74163061411746
 20
-10.46227120014168
 10
56.93343559491748
 20
-10.46598854414168
 10
57.12491020451747
 20
-10.47014844974168
 10
57.31607683651748
 20
-10.47475499694168
 10
57.50696526211746
 20
-10.47981308174168
 10
57.69762464931748
 20
-10.48532885134167
 10
57.88805863971745
 20
-10.49130786414167
 10
58.07826454211746
 20
-10.49775577294167
 10
58.26830205891747
 20
-10.50468075694168
 10
58.45825017091747
 20
-10.51209252654167
 10
58.64796747491746
 20
-10.51999223534167
 10
58.83763016131746
 20
-10.52839405294167
 10
59.02808263011746
 20
-10.53734635534168
 10
59.21747399811747
 20
-10.54676895054167
 10
59.40436941091746
 20
-10.55658327694168
 10
59.58765073571746
 20
-10.56671437614167
  0
LWPOLYLINE
  5
344
330
2
100
AcDbEntity
  8
0
100
AcDbPolyline
 90
       16
 70
     0
 43
0.0
 10
50.79455422531748
 20
-10.56671437294167
 10
50.98103582371746
 20
-10.55641087054168
 10
51.16902937411746
 20
-10.54654928814167
 10
51.35792116771748
 20
-10.53716268654167
 10
51.54745372931748
 20
-10.52826271054168
 10
51.73702052771748
 20
-10.51987272334167
 10
51.92656286211747
 20
-10.51198740654167
 10
52.11635530371748
 20
-10.50458828494167
 10
52.30631711971748
 20
-10.49767223694168
 10
52.49644811811748
 20
-10.49123276334168
 10
52.68674879331746
 20
-10.48526348654168
 10
52.87724392931747
 20
-10.47975757454167
 10
53.06798690851747
 20
-10.47470800654167
 10
53.25901744771747
 20
-10.47010900654167
 10
53.45034765571748
 20
-10.46595612654168
 10
53.64199303651748
 20
-10.46224536814168
  0
LWPOLYLINE
  5
345
330
2
100
AcDbEntity
  8
0
100
AcDbPolyline
 90
        5
 70
     0
 43
0.0
 10
54.20618067171748
 20
-10.45344716814167
 10
53.25640054531746
 20
-10.46783190254167
 10
52.35370546211746
 20
-10.48895392014168
 10
51.49920291651747
 20
-10.51440349134168
 10
50.63593129891748
 20
-10.54416038734167
  0
LWPOLYLINE
  5
346
330
2
100
AcDbEntity
  8
0
100
AcDbPolyline
 90
        5
 70
     0
 43
0.0
 10
50.60756695971747
 20
-10.54520125614168
 10
49.76347739651746
 20
-10.57962833774168
 10
48.90910131011747
 20
-10.62296921454168
 10
48.05622640451748
 20
-10.67836949134168
 10
47.21707147491748
 20
-10.75032940334168
  0
LWPOLYLINE
  5
347
330
2
100
AcDbEntity
  8
0
100
AcDbPolyline
 90
       19
 70
     0
 43
0.0
 10
50.79455422531748
 20
-10.56671437294167
 10
50.65152319491748
 20
-10.57500440334168
 10
50.50045600451747
 20
-10.58416995374168
 10
50.34131019171747
 20
-10.59429357454167
 10
50.17372937891747
 20
-10.60548575214167
 10
49.99741560771747
 20
-10.61786510414168
 10
49.81334820291746
 20
-10.63146604014167
 10
49.62884940451747
 20
-10.64581002894168
 10
49.44537903331746
 20
-10.66079686574167
 10
49.26251045571746
 20
-10.67646814734168
 10
49.08026267971746
 20
-10.69283120974168
 10
48.89860318051749
 20
-10.70989991534168
 10
48.71747467331747
 20
-10.72769352334168
 10
48.53676631971746
 20
-10.74623832974168
 10
48.35630271811746
 20
-10.76557035374168
 10
48.17593598691747
 20
-10.78572678254167
 10
47.99558977731746
 20
-10.80674062414168
 10
47.81520473251745
 20
-10.82864633774167
 10
47.63471782051746
 20
-10.85148247214168
  0
LINE
  5
348
330
2
100
AcDbEntity
  8
0
100
AcDbLine
 10
47.21704698211746
 20
-10.75033180974168
 30
0.0
 11
46.96779820291746
 21
-10.77539556334168
 31
0.0
  0
LINE
  5
349
330
2
100
AcDbEntity
  8
0
100
AcDbLine
 10
50.70511001891748
 20
-10.54164970414168
 30
0.0
 11
50.60756618371747
 21
-10.54520128494168
 31
0.0
  0
LINE
  5
34A
330
2
100
AcDbEntity
  8
0
100
AcDbLine
 10
55.97046665091747
 20
-10.45176969294168
 30
0.0
 11
56.16400034851747
 21
-10.45374436494169
 31
0.0
  0
LINE
  5
34B
330
2
100
AcDbEntity
  8
0
100
AcDbLine
 10
56.17506643011748
 20
-10.45343714254168
 30
0.0
 11
55.19110248291747
 21
-10.44823679534169
 31
0.0
  0
LWPOLYLINE
  5
34C
330
2
100
AcDbEntity
  8
0
100
AcDbPolyline
 90
        5
 70
     0
 43
0.0
 10
55.19110248611747
 20
-10.44823679534168
 10
55.38729595811748
 20
-10.44846089454168
 10
55.58236153731747
 20
-10.44912742894168
 10
55.77652878851748
 20
-10.45023010574168
 10
55.97046665091747
 20
-10.45176969294168
  0
LINE
  5
34D
330
2
100
AcDbEntity
  8
0
100
AcDbLine
 10
54.03909310371748
 20
-10.45597776494168
 30
0.0
 11
54.29160682371747
 21
-10.45299525134168
 31
0.0
  0
LINE
  5
34E
330
2
100
AcDbEntity
  8
0
100
AcDbLine
 10
54.29160682371747
 20
-10.45299525134168
 30
0.0
 11
54.21907219651746
 21
-10.45373453294168
 31
0.0
  0
LINE
  5
34F
330
2
100
AcDbEntity
  8
0
100
AcDbLine
 10
53.64199303651748
 20
-10.46224536814168
 30
0.0
 11
53.83398665571746
 21
-10.45897307374168
 31
0.0
  0
LINE
  5
350
330
2
100
AcDbEntity
  8
0
100
AcDbLine
 10
55.19110248611747
 20
-10.44823679534169
 30
0.0
 11
54.20618067171748
 21
-10.45344716814168
 31
0.0
  0
LWPOLYLINE
  5
351
330
2
100
AcDbEntity
  8
0
100
AcDbPolyline
 90
        6
 70
     0
 43
0.0
 10
54.29160682371747
 20
-10.45299525134167
 10
54.41277209091746
 20
-10.45176032174167
 10
54.60706829571748
 20
-10.45022064014168
 10
54.79998231971745
 20
-10.44912679694168
 10
54.99263631971746
 20
-10.44846611534167
 10
55.19110248611747
 20
-10.44823679534168
  0
LINE
  5
352
330
2
100
AcDbEntity
  8
0
100
AcDbLine
 10
57.12485216931748
 20
-10.46781323374168
 30
0.0
 11
56.17506643011748
 21
-10.45343714254168
 31
0.0
  0
LINE
  5
353
330
2
100
AcDbEntity
  8
0
100
AcDbLine
 10
56.16400034851747
 20
-10.45374436494169
 30
0.0
 11
56.35695786051747
 21
-10.45615161774168
 31
0.0
  0
LWPOLYLINE
  5
354
330
2
100
AcDbEntity
  8
0
100
AcDbPolyline
 90
        3
 70
     0
 43
0.0
 10
58.88206047011746
 20
-10.51437301134167
 10
58.02755264451747
 20
-10.48892841934167
 10
57.12485216931748
 20
-10.46781323374168
  0
LWPOLYLINE
  5
355
330
2
100
AcDbEntity
  8
0
100
AcDbPolyline
 90
       18
 70
     0
 43
0.0
 10
62.74748715331748
 20
-10.85148247214168
 10
62.56433354531748
 20
-10.82831589454167
 10
62.38131868611748
 20
-10.80611097454168
 10
62.19834391971748
 20
-10.78482326894167
 10
62.01534523971748
 20
-10.76441667214167
 10
61.83224172771748
 20
-10.74485674894168
 10
61.64887034371748
 20
-10.72610403214167
 10
61.46505752451748
 20
-10.70812219054167
 10
61.28069328611747
 20
-10.69088451694167
 10
61.09568962211747
 20
-10.67436866094168
 10
60.91003390691748
 20
-10.65856277134167
 10
60.72382023971747
 20
-10.64346521614167
 10
60.53684583811747
 20
-10.62905029134168
 10
60.34858634371747
 20
-10.61527195054168
 10
60.15957223171747
 20
-10.60216247854168
 10
59.96978076771748
 20
-10.58970976494167
 10
59.77907566051746
 20
-10.57789411214167
 10
59.58765073571746
 20
-10.56671437614167
  0
LWPOLYLINE
  5
356
330
2
100
AcDbEntity
  8
0
100
AcDbPolyline
 90
        5
 70
     0
 43
0.0
 10
63.16532927171746
 20
-10.75034876974167
 10
62.32540254371747
 20
-10.67832680494167
 10
61.47239855651747
 20
-10.62292906894167
 10
60.61790234691748
 20
-10.57959105294168
 10
59.77463421891747
 20
-10.54520111694168
  0
LINE
  5
357
330
2
100
AcDbEntity
  8
0
100
AcDbLine
 10
63.41443260611746
 20
-10.77539819854168
 30
0.0
 11
63.16535318051745
 21
-10.75035115214168
 31
0.0
  0
ENDSEC
  0
SECTION
  2
OBJECTS
  0
DICTIONARY
  5
A
330
0
100
AcDbDictionary
  3
ACAD_GROUP
350
23
  3
ACAD_LAYOUT
350
9
  3
ACAD_MLINESTYLE
350
24
  3
ACAD_PLOTSETTINGS
350
25
  3
ACAD_PLOTSTYLENAME
350
26
  3
ACDBHEADERROUNDTRIPXREC
350
3CE
  3
ACDBVARIABLEDICTIONARY
350
358
  0
DICTIONARY
  5
388
330
2
100
AcDbDictionary
280
     1
  3
ACAD_LAYOUTSELFREF
360
3EF
  0
DICTIONARY
  5
38E
330
B
100
AcDbDictionary
280
     1
  3
ACAD_LAYOUTSELFREF
360
3F0
  0
DICTIONARY
  5
23
102
{ACAD_REACTORS
330
A
102
}
330
A
100
AcDbDictionary
  0
DICTIONARY
  5
9
102
{ACAD_REACTORS
330
A
102
}
330
A
100
AcDbDictionary
  0
DICTIONARY
  5
24
102
{ACAD_REACTORS
330
A
102
}
330
A
100
AcDbDictionary
  3
STANDARD
350
27
  0
DICTIONARY
  5
25
102
{ACAD_REACTORS
330
A
102
}
330
A
100
AcDbDictionary
  0
ACDBDICTIONARYWDFLT
  5
26
102
{ACAD_REACTORS
330
A
102
}
330
A
100
AcDbDictionary
281
     1
  3
Normal
350
5
100
AcDbDictionaryWithDefault
340
5
  0
DICTIONARY
  5
3CE
102
{ACAD_REACTORS
330
A
102
}
330
A
100
AcDbDictionary
  3
CEPSNTYPE
350
3D8
  3
DIMSTYLEDATA
350
3DC
  3
FINGERPRINTGUID
350
3D9
  3
HYPERLINKBASE
350
3D1
  3
INSUNITS
350
3D7
  3
LAYOUTDICT
350
3D3
  3
LWETCUNION
350
3D6
  3
PLOTSETDICT
350
3D4
  3
PLOTSTYLNAMDICT
350
3D5
  3
PSVPSCALE
350
3DB
  3
PUCSBASE
350
3DF
  3
PUCSORGBACK
350
3E5
  3
PUCSORGBOTTOM
350
3E1
  3
PUCSORGFRONT
350
3E4
  3
PUCSORGLEFT
350
3E2
  3
PUCSORGRIGHT
350
3E3
  3
PUCSORGTOP
350
3E0
  3
PUCSORTHOREF
350
3DD
  3
PUCSORTHOVIEW
350
3DE
  3
STYLESHEET
350
3D2
  3
TSTACKALIGN
350
3CF
  3
TSTACKSIZE
350
3D0
  3
UCSBASE
350
3E8
  3
UCSORGBACK
350
3EE
  3
UCSORGBOTTOM
350
3EA
  3
UCSORGFRONT
350
3ED
  3
UCSORGLEFT
350
3EB
  3
UCSORGRIGHT
350
3EC
  3
UCSORGTOP
350
3E9
  3
UCSORTHOREF
350
3E6
  3
UCSORTHOVIEW
350
3E7
  3
VERSIONGUID
350
3DA
  0
DICTIONARY
  5
358
102
{ACAD_REACTORS
330
A
102
}
330
A
100
AcDbDictionary
  3
DIMASSOC
350
35A
  3
HIDETEXT
350
359
  0
XRECORD
  5
3EF
102
{ACAD_REACTORS
330
388
102
}
330
388
100
AcDbXrecord
340
2
  0
XRECORD
  5
3F0
102
{ACAD_REACTORS
330
38E
102
}
330
38E
100
AcDbXrecord
340
B
  0
MLINESTYLE
  5
27
102
{ACAD_REACTORS
330
24
102
}
330
24
100
AcDbMlineStyle
  2
STANDARD
 70
     0
  3

 62
   256
 51
90.0
 52
90.0
 71
     2
 49
0.5
 62
   256
  6
BYLAYER
 49
-0.5
 62
   256
  6
BYLAYER
  0
ACDBPLACEHOLDER
  5
5
102
{ACAD_REACTORS
330
26
102
}
330
0
100
AcDbPlaceHolder
280
     0
  0
XRECORD
  5
3D8
102
{ACAD_REACTORS
330
3CE
102
}
330
3CE
100
AcDbXrecord
 90
        0
  0
XRECORD
  5
3DC
102
{ACAD_REACTORS
330
3CE
102
}
330
3CE
100
AcDbXrecord
1000
DSTYLE
1002
{
1070
   341
340
1E
1070
   342
340
1E
1002
}
  0
XRECORD
  5
3D9
102
{ACAD_REACTORS
330
3CE
102
}
330
3CE
100
AcDbXrecord
  1

  0
XRECORD
  5
3D1
102
{ACAD_REACTORS
330
3CE
102
}
330
3CE
100
AcDbXrecord
  1

  0
XRECORD
  5
3D7
102
{ACAD_REACTORS
330
3CE
102
}
330
3CE
100
AcDbXrecord
 90
        1
  0
XRECORD
  5
3D3
102
{ACAD_REACTORS
330
3CE
102
}
330
3CE
100
AcDbXrecord
340
9
  0
XRECORD
  5
3D6
102
{ACAD_REACTORS
330
3CE
102
}
330
3CE
100
AcDbXrecord
 90
    10781
  0
XRECORD
  5
3D4
102
{ACAD_REACTORS
330
3CE
102
}
330
3CE
100
AcDbXrecord
340
25
  0
XRECORD
  5
3D5
102
{ACAD_REACTORS
330
3CE
102
}
330
3CE
100
AcDbXrecord
340
26
  0
XRECORD
  5
3DB
102
{ACAD_REACTORS
330
3CE
102
}
330
3CE
100
AcDbXrecord
 40
0.0
  0
XRECORD
  5
3DF
102
{ACAD_REACTORS
330
3CE
102
}
330
3CE
100
AcDbXrecord
340
0
  0
XRECORD
  5
3E5
102
{ACAD_REACTORS
330
3CE
102
}
330
3CE
100
AcDbXrecord
 10
0.0
 20
0.0
 30
0.0
  0
XRECORD
  5
3E1
102
{ACAD_REACTORS
330
3CE
102
}
330
3CE
100
AcDbXrecord
 10
0.0
 20
0.0
 30
0.0
  0
XRECORD
  5
3E4
102
{ACAD_REACTORS
330
3CE
102
}
330
3CE
100
AcDbXrecord
 10
0.0
 20
0.0
 30
0.0
  0
XRECORD
  5
3E2
102
{ACAD_REACTORS
330
3CE
102
}
330
3CE
100
AcDbXrecord
 10
0.0
 20
0.0
 30
0.0
  0
XRECORD
  5
3E3
102
{ACAD_REACTORS
330
3CE
102
}
330
3CE
100
AcDbXrecord
 10
0.0
 20
0.0
 30
0.0
  0
XRECORD
  5
3E0
102
{ACAD_REACTORS
330
3CE
102
}
330
3CE
100
AcDbXrecord
 10
0.0
 20
0.0
 30
0.0
  0
XRECORD
  5
3DD
102
{ACAD_REACTORS
330
3CE
102
}
330
3CE
100
AcDbXrecord
340
0
  0
XRECORD
  5
3DE
102
{ACAD_REACTORS
330
3CE
102
}
330
3CE
100
AcDbXrecord
 70
     0
  0
XRECORD
  5
3D2
102
{ACAD_REACTORS
330
3CE
102
}
330
3CE
100
AcDbXrecord
  1

  0
XRECORD
  5
3CF
102
{ACAD_REACTORS
330
3CE
102
}
330
3CE
100
AcDbXrecord
 90
        1
  0
XRECORD
  5
3D0
102
{ACAD_REACTORS
330
3CE
102
}
330
3CE
100
AcDbXrecord
 90
       70
  0
XRECORD
  5
3E8
102
{ACAD_REACTORS
330
3CE
102
}
330
3CE
100
AcDbXrecord
340
0
  0
XRECORD
  5
3EE
102
{ACAD_REACTORS
330
3CE
102
}
330
3CE
100
AcDbXrecord
 10
0.0
 20
0.0
 30
0.0
  0
XRECORD
  5
3EA
102
{ACAD_REACTORS
330
3CE
102
}
330
3CE
100
AcDbXrecord
 10
0.0
 20
0.0
 30
0.0
  0
XRECORD
  5
3ED
102
{ACAD_REACTORS
330
3CE
102
}
330
3CE
100
AcDbXrecord
 10
0.0
 20
0.0
 30
0.0
  0
XRECORD
  5
3EB
102
{ACAD_REACTORS
330
3CE
102
}
330
3CE
100
AcDbXrecord
 10
0.0
 20
0.0
 30
0.0
  0
XRECORD
  5
3EC
102
{ACAD_REACTORS
330
3CE
102
}
330
3CE
100
AcDbXrecord
 10
0.0
 20
0.0
 30
0.0
  0
XRECORD
  5
3E9
102
{ACAD_REACTORS
330
3CE
102
}
330
3CE
100
AcDbXrecord
 10
0.0
 20
0.0
 30
0.0
  0
XRECORD
  5
3E6
102
{ACAD_REACTORS
330
3CE
102
}
330
3CE
100
AcDbXrecord
340
0
  0
XRECORD
  5
3E7
102
{ACAD_REACTORS
330
3CE
102
}
330
3CE
100
AcDbXrecord
 70
     0
  0
XRECORD
  5
3DA
102
{ACAD_REACTORS
330
3CE
102
}
330
3CE
100
AcDbXrecord
  1
{ED73F7E0-BF02-4F43-81C1-C38B97CCDF3A}
  0
DICTIONARYVAR
  5
35A
102
{ACAD_REACTORS
330
358
102
}
330
358
100
DictionaryVariables
280
     0
  1
1
  0
DICTIONARYVAR
  5
359
102
{ACAD_REACTORS
330
358
102
}
330
358
100
DictionaryVariables
280
     0
  1
1
  0
ENDSEC
  0
EOF
